999
Commandline: dxfline2poly AutotransformerPanelCutout.dxf
  0
SECTION
  2
HEADER
  9
$ACADVER
  1
AC1015
  9
$INSUNITS
 70
4
  0
ENDSEC
  0
SECTION
  2
BLOCKS
  0
ENDSEC
  0
SECTION
  2
ENTITIES
  0
LWPOLYLINE
 90
9
 70
0
 10
99.500000
 20
60.500000
 10
99.500000
 20
73.500000
 10
98.500000
 20
74.500000
 10
73.500000
 20
74.500000
 10
72.500000
 20
73.500000
 10
72.500000
 20
60.500000
 10
78.500000
 20
54.500000
 10
93.500000
 20
54.500000
 10
99.500000
 20
60.500000
  0
LWPOLYLINE
 90
20
 70
0
 10
66.368200
 20
63.045900
 10
66.820400
 20
63.244200
 10
67.183700
 20
63.578700
 10
67.418700
 20
64.013000
 10
67.500000
 20
64.500000
 10
67.418700
 20
64.987000
 10
67.183700
 20
65.421300
 10
66.820400
 20
65.755800
 10
66.368200
 20
65.954100
 10
65.876100
 20
65.994900
 10
65.397400
 20
65.873700
 10
64.984100
 20
65.603600
 10
64.680800
 20
65.213900
 10
64.520400
 20
64.746900
 10
64.520400
 20
64.253100
 10
64.680800
 20
63.786100
 10
64.984100
 20
63.396400
 10
65.397400
 20
63.126300
 10
65.876100
 20
63.005100
 10
66.368200
 20
63.045900
  0
LWPOLYLINE
 90
20
 70
0
 10
106.368000
 20
63.045900
 10
106.820000
 20
63.244200
 10
107.184000
 20
63.578700
 10
107.419000
 20
64.013000
 10
107.500000
 20
64.500000
 10
107.419000
 20
64.987000
 10
107.184000
 20
65.421300
 10
106.820000
 20
65.755800
 10
106.368000
 20
65.954100
 10
105.876000
 20
65.994900
 10
105.397000
 20
65.873700
 10
104.984000
 20
65.603600
 10
104.681000
 20
65.213900
 10
104.520000
 20
64.746900
 10
104.520000
 20
64.253100
 10
104.681000
 20
63.786100
 10
104.984000
 20
63.396400
 10
105.397000
 20
63.126300
 10
105.876000
 20
63.005100
 10
106.368000
 20
63.045900
  0
LWPOLYLINE
 90
27
 70
0
 10
51.709200
 20
61.130000
 10
52.136100
 20
61.354000
 10
52.497000
 20
61.673800
 10
52.770900
 20
62.070500
 10
52.941900
 20
62.521400
 10
53.000000
 20
63.000000
 10
52.941900
 20
63.478600
 10
52.770900
 20
63.929400
 10
52.497000
 20
64.326200
 10
52.136100
 20
64.646000
 10
51.709200
 20
64.870000
 10
51.241100
 20
64.985400
 10
50.758900
 20
64.985400
 10
50.290800
 20
64.870000
 10
49.863900
 20
64.646000
 10
49.503000
 20
64.326200
 10
49.229100
 20
63.929400
 10
49.058100
 20
63.478600
 10
49.000000
 20
63.000000
 10
49.058100
 20
62.521400
 10
49.229100
 20
62.070500
 10
49.503000
 20
61.673800
 10
49.863900
 20
61.354000
 10
50.290800
 20
61.130000
 10
50.758900
 20
61.014600
 10
51.241100
 20
61.014600
 10
51.709200
 20
61.130000
  0
LWPOLYLINE
 90
27
 70
0
 10
13.709200
 20
61.130000
 10
14.136100
 20
61.354000
 10
14.497000
 20
61.673800
 10
14.770900
 20
62.070500
 10
14.941900
 20
62.521400
 10
15.000000
 20
63.000000
 10
14.941900
 20
63.478600
 10
14.770900
 20
63.929400
 10
14.497000
 20
64.326200
 10
14.136100
 20
64.646000
 10
13.709200
 20
64.870000
 10
13.241100
 20
64.985400
 10
12.758900
 20
64.985400
 10
12.290800
 20
64.870000
 10
11.863900
 20
64.646000
 10
11.503000
 20
64.326200
 10
11.229100
 20
63.929400
 10
11.058100
 20
63.478600
 10
11.000000
 20
63.000000
 10
11.058100
 20
62.521400
 10
11.229100
 20
62.070500
 10
11.503000
 20
61.673800
 10
11.863900
 20
61.354000
 10
12.290800
 20
61.130000
 10
12.758900
 20
61.014600
 10
13.241100
 20
61.014600
 10
13.709200
 20
61.130000
  0
LWPOLYLINE
 90
181
 70
0
 10
32.724200
 20
23.262600
 10
33.447400
 20
23.300500
 10
34.169000
 20
23.363700
 10
34.887800
 20
23.451900
 10
35.603200
 20
23.565200
 10
36.314200
 20
23.703400
 10
37.019900
 20
23.866400
 10
37.719500
 20
24.053800
 10
38.412100
 20
24.265600
 10
39.096900
 20
24.501400
 10
39.773100
 20
24.760900
 10
40.439800
 20
25.043900
 10
41.096200
 20
25.350000
 10
41.741500
 20
25.678800
 10
42.375000
 20
26.030000
 10
42.995800
 20
26.403000
 10
43.603200
 20
26.797500
 10
44.196500
 20
27.212900
 10
44.775000
 20
27.648800
 10
45.337800
 20
28.104600
 10
45.884500
 20
28.579700
 10
46.414200
 20
29.073700
 10
46.926300
 20
29.585800
 10
47.420200
 20
30.115500
 10
47.895400
 20
30.662200
 10
48.351200
 20
31.225000
 10
48.787100
 20
31.803500
 10
49.202500
 20
32.396700
 10
49.597000
 20
33.004200
 10
49.970000
 20
33.625000
 10
50.321200
 20
34.258500
 10
50.650000
 20
34.903800
 10
50.956100
 20
35.560200
 10
51.239100
 20
36.226900
 10
51.498600
 20
36.903100
 10
51.734400
 20
37.587900
 10
51.946200
 20
38.280500
 10
52.133600
 20
38.980100
 10
52.296600
 20
39.685800
 10
52.434800
 20
40.396800
 10
52.548000
 20
41.112200
 10
52.636300
 20
41.831000
 10
52.699400
 20
42.552600
 10
52.737400
 20
43.275800
 10
52.750000
 20
44.000000
 10
52.737400
 20
44.724200
 10
52.699400
 20
45.447400
 10
52.636300
 20
46.169000
 10
52.548000
 20
46.887800
 10
52.434800
 20
47.603200
 10
52.296600
 20
48.314200
 10
52.133600
 20
49.019900
 10
51.946200
 20
49.719500
 10
51.734400
 20
50.412100
 10
51.498600
 20
51.096900
 10
51.239100
 20
51.773100
 10
50.956100
 20
52.439800
 10
50.650000
 20
53.096200
 10
50.321200
 20
53.741500
 10
49.970000
 20
54.375000
 10
49.597000
 20
54.995800
 10
49.202500
 20
55.603200
 10
48.787100
 20
56.196500
 10
48.351200
 20
56.775000
 10
47.895400
 20
57.337800
 10
47.420200
 20
57.884500
 10
46.926300
 20
58.414200
 10
46.414200
 20
58.926300
 10
45.884500
 20
59.420300
 10
45.337800
 20
59.895400
 10
44.775000
 20
60.351200
 10
44.196500
 20
60.787100
 10
43.603200
 20
61.202500
 10
42.995800
 20
61.597000
 10
42.375000
 20
61.970000
 10
41.741500
 20
62.321200
 10
41.096200
 20
62.650000
 10
40.439800
 20
62.956100
 10
39.773100
 20
63.239100
 10
39.096900
 20
63.498600
 10
38.412100
 20
63.734400
 10
37.719500
 20
63.946200
 10
37.019900
 20
64.133600
 10
36.314200
 20
64.296600
 10
35.603200
 20
64.434800
 10
34.887800
 20
64.548100
 10
34.169000
 20
64.636300
 10
33.447400
 20
64.699400
 10
32.724200
 20
64.737400
 10
32.000000
 20
64.750000
 10
31.275800
 20
64.737400
 10
30.552600
 20
64.699400
 10
29.831000
 20
64.636300
 10
29.112200
 20
64.548100
 10
28.396800
 20
64.434800
 10
27.685800
 20
64.296600
 10
26.980100
 20
64.133600
 10
26.280500
 20
63.946200
 10
25.587900
 20
63.734400
 10
24.903100
 20
63.498600
 10
24.226900
 20
63.239100
 10
23.560200
 20
62.956100
 10
22.903800
 20
62.650000
 10
22.258500
 20
62.321200
 10
21.625000
 20
61.970000
 10
21.004200
 20
61.597000
 10
20.396700
 20
61.202500
 10
19.803500
 20
60.787100
 10
19.225000
 20
60.351200
 10
18.662200
 20
59.895400
 10
18.115500
 20
59.420300
 10
17.585800
 20
58.926300
 10
17.073700
 20
58.414200
 10
16.579700
 20
57.884500
 10
16.104600
 20
57.337800
 10
15.648800
 20
56.775000
 10
15.212900
 20
56.196500
 10
14.797500
 20
55.603200
 10
14.403000
 20
54.995800
 10
14.030000
 20
54.375000
 10
13.678800
 20
53.741500
 10
13.350000
 20
53.096200
 10
13.043900
 20
52.439800
 10
12.760900
 20
51.773100
 10
12.501400
 20
51.096900
 10
12.265600
 20
50.412100
 10
12.053800
 20
49.719500
 10
11.866400
 20
49.019900
 10
11.703400
 20
48.314200
 10
11.565200
 20
47.603200
 10
11.451900
 20
46.887800
 10
11.363700
 20
46.169000
 10
11.300500
 20
45.447400
 10
11.262600
 20
44.724200
 10
11.250000
 20
44.000000
 10
11.262600
 20
43.275800
 10
11.300500
 20
42.552600
 10
11.363700
 20
41.831000
 10
11.451900
 20
41.112200
 10
11.565200
 20
40.396800
 10
11.703400
 20
39.685800
 10
11.866400
 20
38.980100
 10
12.053800
 20
38.280500
 10
12.265600
 20
37.587900
 10
12.501400
 20
36.903100
 10
12.760900
 20
36.226900
 10
13.043900
 20
35.560200
 10
13.350000
 20
34.903800
 10
13.678800
 20
34.258500
 10
14.030000
 20
33.625000
 10
14.403000
 20
33.004200
 10
14.797500
 20
32.396700
 10
15.212900
 20
31.803500
 10
15.648800
 20
31.225000
 10
16.104600
 20
30.662200
 10
16.579700
 20
30.115500
 10
17.073700
 20
29.585800
 10
17.585800
 20
29.073700
 10
18.115500
 20
28.579700
 10
18.662200
 20
28.104600
 10
19.225000
 20
27.648800
 10
19.803500
 20
27.212900
 10
20.396700
 20
26.797500
 10
21.004200
 20
26.403000
 10
21.625000
 20
26.030000
 10
22.258500
 20
25.678800
 10
22.903800
 20
25.350000
 10
23.560200
 20
25.043900
 10
24.226900
 20
24.760900
 10
24.903100
 20
24.501400
 10
25.587900
 20
24.265600
 10
26.280500
 20
24.053800
 10
26.980100
 20
23.866400
 10
27.685800
 20
23.703400
 10
28.396800
 20
23.565200
 10
29.112200
 20
23.451900
 10
29.831000
 20
23.363700
 10
30.552600
 20
23.300500
 10
31.275800
 20
23.262600
 10
32.000000
 20
23.250000
 10
32.724200
 20
23.262600
  0
LWPOLYLINE
 90
5
 70
0
 10
104.750000
 20
43.500000
 10
83.250000
 20
43.500000
 10
83.250000
 20
15.500000
 10
104.750000
 20
15.500000
 10
104.750000
 20
43.500000
  0
LWPOLYLINE
 90
5
 70
0
 10
76.000000
 20
34.000000
 10
63.500000
 20
34.000000
 10
63.500000
 20
15.000000
 10
76.000000
 20
15.000000
 10
76.000000
 20
34.000000
  0
LWPOLYLINE
 90
27
 70
0
 10
13.709200
 20
23.130000
 10
14.136100
 20
23.354000
 10
14.497000
 20
23.673800
 10
14.770900
 20
24.070500
 10
14.941900
 20
24.521400
 10
15.000000
 20
25.000000
 10
14.941900
 20
25.478600
 10
14.770900
 20
25.929400
 10
14.497000
 20
26.326200
 10
14.136100
 20
26.646000
 10
13.709200
 20
26.870000
 10
13.241100
 20
26.985400
 10
12.758900
 20
26.985400
 10
12.290800
 20
26.870000
 10
11.863900
 20
26.646000
 10
11.503000
 20
26.326200
 10
11.229100
 20
25.929400
 10
11.058100
 20
25.478600
 10
11.000000
 20
25.000000
 10
11.058100
 20
24.521400
 10
11.229100
 20
24.070500
 10
11.503000
 20
23.673800
 10
11.863900
 20
23.354000
 10
12.290800
 20
23.130000
 10
12.758900
 20
23.014600
 10
13.241100
 20
23.014600
 10
13.709200
 20
23.130000
  0
LWPOLYLINE
 90
27
 70
0
 10
51.709200
 20
23.130000
 10
52.136100
 20
23.354000
 10
52.497000
 20
23.673800
 10
52.770900
 20
24.070500
 10
52.941900
 20
24.521400
 10
53.000000
 20
25.000000
 10
52.941900
 20
25.478600
 10
52.770900
 20
25.929400
 10
52.497000
 20
26.326200
 10
52.136100
 20
26.646000
 10
51.709200
 20
26.870000
 10
51.241100
 20
26.985400
 10
50.758900
 20
26.985400
 10
50.290800
 20
26.870000
 10
49.863900
 20
26.646000
 10
49.503000
 20
26.326200
 10
49.229100
 20
25.929400
 10
49.058100
 20
25.478600
 10
49.000000
 20
25.000000
 10
49.058100
 20
24.521400
 10
49.229100
 20
24.070500
 10
49.503000
 20
23.673800
 10
49.863900
 20
23.354000
 10
50.290800
 20
23.130000
 10
50.758900
 20
23.014600
 10
51.241100
 20
23.014600
 10
51.709200
 20
23.130000
  0
ENDSEC
  0
SECTION
  2
OBJECTS
  0
DICTIONARY
  0
ENDSEC
  0
EOF
  0
EOF
