999
Generated by: dxfmerge -dx 0 -dy 0 backplate.dxf -ddy lasty -ddy 2 baseplate.dxf -ddy lasty -ddy 2 tubeplate.dxf -ddy lasty -ddy 2 tubeplate.dxf -ddy lasty -ddy 2 -ddy -3 sideleg.dxf -ddy lasty -ddy 2 sideleg.dxf -dy 0 -dx 127.700000 -ddx 2 -fv sideplate.dxf -ddy lasty -ddy 2 sideplate.dxf
  0
SECTION
  2
HEADER
  9
$ACADVER
  1
AC1015
  9
$INSUNITS
 70
4
  0
ENDSEC
  0
SECTION
  2
ENTITIES
999
Included file: backplate.dxf
999
fliphorz:0 flipvert:0 tozero:0 addx:0.00 addy:0.00 scalex:1.00 scaley:1.00 minx:0.00 miny: 0.00 maxx:127.70 maxy:54.50
  0
LWPOLYLINE
 90
209
 70
0
 10
0.000000
 20
5.500000
 10
0.000000
 20
6.500000
 10
8.500000
 20
6.500000
 10
8.888000
 20
6.551000
 10
9.250000
 20
6.701000
 10
9.561000
 20
6.939000
 10
9.799000
 20
7.250000
 10
9.949000
 20
7.612000
 10
10.000000
 20
8.000000
 10
9.949000
 20
8.388000
 10
9.799000
 20
8.750000
 10
9.561000
 20
9.061000
 10
9.250000
 20
9.299000
 10
8.888000
 20
9.449000
 10
8.500000
 20
9.500000
 10
0.000000
 20
9.500000
 10
0.000000
 20
10.500000
 10
1.550000
 20
11.800000
 10
2.350000
 20
11.800000
 10
2.350000
 20
11.000000
 10
9.250000
 20
11.000000
 10
9.444000
 20
11.026000
 10
9.625000
 20
11.100000
 10
9.780000
 20
11.220000
 10
9.900000
 20
11.375000
 10
9.974000
 20
11.556000
 10
10.000000
 20
11.750000
 10
9.974000
 20
11.944000
 10
9.900000
 20
12.125000
 10
9.780000
 20
12.280000
 10
9.625000
 20
12.400000
 10
9.444000
 20
12.474000
 10
9.250000
 20
12.500000
 10
4.000000
 20
12.500000
 10
4.000000
 20
42.000000
 10
9.250000
 20
42.000000
 10
9.444000
 20
42.026000
 10
9.625000
 20
42.100000
 10
9.780000
 20
42.220000
 10
9.900000
 20
42.375000
 10
9.974000
 20
42.556000
 10
10.000000
 20
42.750000
 10
9.974000
 20
42.944000
 10
9.900000
 20
43.125000
 10
9.780000
 20
43.280000
 10
9.625000
 20
43.400000
 10
9.444000
 20
43.474000
 10
9.250000
 20
43.500000
 10
2.350000
 20
43.500000
 10
2.350000
 20
42.700000
 10
1.550000
 20
42.700000
 10
0.000000
 20
44.000000
 10
0.000000
 20
45.000000
 10
8.500000
 20
45.000000
 10
8.888000
 20
45.051000
 10
9.250000
 20
45.201000
 10
9.561000
 20
45.439000
 10
9.799000
 20
45.750000
 10
9.949000
 20
46.112000
 10
10.000000
 20
46.500000
 10
9.949000
 20
46.888000
 10
9.799000
 20
47.250000
 10
9.561000
 20
47.561000
 10
9.250000
 20
47.799000
 10
8.888000
 20
47.949000
 10
8.500000
 20
48.000000
 10
0.000000
 20
48.000000
 10
0.000000
 20
49.000000
 10
1.550000
 20
50.300000
 10
2.350000
 20
50.300000
 10
2.350000
 20
49.500000
 10
9.250000
 20
49.500000
 10
9.444000
 20
49.526000
 10
9.625000
 20
49.600000
 10
9.780000
 20
49.720000
 10
9.900000
 20
49.875000
 10
9.974000
 20
50.056000
 10
10.000000
 20
50.250000
 10
9.974000
 20
50.444000
 10
9.900000
 20
50.625000
 10
9.780000
 20
50.780000
 10
9.625000
 20
50.900000
 10
9.444000
 20
50.974000
 10
9.250000
 20
51.000000
 10
4.000000
 20
51.000000
 10
4.000000
 20
54.500000
 10
123.700000
 20
54.500000
 10
123.700000
 20
51.000000
 10
118.450000
 20
51.000000
 10
118.256000
 20
50.974000
 10
118.075000
 20
50.900000
 10
117.920000
 20
50.780000
 10
117.800000
 20
50.625000
 10
117.726000
 20
50.444000
 10
117.700000
 20
50.250000
 10
117.726000
 20
50.056000
 10
117.800000
 20
49.875000
 10
117.920000
 20
49.720000
 10
118.075000
 20
49.600000
 10
118.256000
 20
49.526000
 10
118.450000
 20
49.500000
 10
125.350000
 20
49.500000
 10
125.350000
 20
50.300000
 10
126.150000
 20
50.300000
 10
127.700000
 20
49.000000
 10
127.700000
 20
48.000000
 10
119.200000
 20
48.000000
 10
118.812000
 20
47.949000
 10
118.450000
 20
47.799000
 10
118.139000
 20
47.561000
 10
117.901000
 20
47.250000
 10
117.751000
 20
46.888000
 10
117.700000
 20
46.500000
 10
117.751000
 20
46.112000
 10
117.901000
 20
45.750000
 10
118.139000
 20
45.439000
 10
118.450000
 20
45.201000
 10
118.812000
 20
45.051000
 10
119.200000
 20
45.000000
 10
127.700000
 20
45.000000
 10
127.700000
 20
44.000000
 10
126.150000
 20
42.700000
 10
125.350000
 20
42.700000
 10
125.350000
 20
43.500000
 10
118.450000
 20
43.500000
 10
118.256000
 20
43.474000
 10
118.075000
 20
43.400000
 10
117.920000
 20
43.280000
 10
117.800000
 20
43.125000
 10
117.726000
 20
42.944000
 10
117.700000
 20
42.750000
 10
117.726000
 20
42.556000
 10
117.800000
 20
42.375000
 10
117.920000
 20
42.220000
 10
118.075000
 20
42.100000
 10
118.256000
 20
42.026000
 10
118.450000
 20
42.000000
 10
123.700000
 20
42.000000
 10
123.700000
 20
12.500000
 10
118.450000
 20
12.500000
 10
118.256000
 20
12.474000
 10
118.075000
 20
12.400000
 10
117.920000
 20
12.280000
 10
117.800000
 20
12.125000
 10
117.726000
 20
11.944000
 10
117.700000
 20
11.750000
 10
117.726000
 20
11.556000
 10
117.800000
 20
11.375000
 10
117.920000
 20
11.220000
 10
118.075000
 20
11.100000
 10
118.256000
 20
11.026000
 10
118.450000
 20
11.000000
 10
125.350000
 20
11.000000
 10
125.350000
 20
11.800000
 10
126.150000
 20
11.800000
 10
127.700000
 20
10.500000
 10
127.700000
 20
9.500000
 10
119.200000
 20
9.500000
 10
118.812000
 20
9.449000
 10
118.450000
 20
9.299000
 10
118.139000
 20
9.061000
 10
117.901000
 20
8.750000
 10
117.751000
 20
8.388000
 10
117.700000
 20
8.000000
 10
117.751000
 20
7.612000
 10
117.901000
 20
7.250000
 10
118.139000
 20
6.939000
 10
118.450000
 20
6.701000
 10
118.812000
 20
6.551000
 10
119.200000
 20
6.500000
 10
127.700000
 20
6.500000
 10
127.700000
 20
5.500000
 10
126.150000
 20
4.200000
 10
125.350000
 20
4.200000
 10
125.350000
 20
5.000000
 10
118.450000
 20
5.000000
 10
118.256000
 20
4.974000
 10
118.075000
 20
4.900000
 10
117.920000
 20
4.780000
 10
117.800000
 20
4.625000
 10
117.726000
 20
4.444000
 10
117.700000
 20
4.250000
 10
117.726000
 20
4.056000
 10
117.800000
 20
3.875000
 10
117.920000
 20
3.720000
 10
118.075000
 20
3.600000
 10
118.256000
 20
3.526000
 10
118.450000
 20
3.500000
 10
123.700000
 20
3.500000
 10
123.700000
 20
0.000000
 10
4.000000
 20
0.000000
 10
4.000000
 20
3.500000
 10
9.250000
 20
3.500000
 10
9.444000
 20
3.526000
 10
9.625000
 20
3.600000
 10
9.780000
 20
3.720000
 10
9.900000
 20
3.875000
 10
9.974000
 20
4.056000
 10
10.000000
 20
4.250000
 10
9.974000
 20
4.444000
 10
9.900000
 20
4.625000
 10
9.780000
 20
4.780000
 10
9.625000
 20
4.900000
 10
9.444000
 20
4.974000
 10
9.250000
 20
5.000000
 10
2.350000
 20
5.000000
 10
2.350000
 20
4.200000
 10
1.550000
 20
4.200000
 10
0.000000
 20
5.500000
  0
LWPOLYLINE
 90
5
 70
0
 10
60.850000
 20
4.000000
 10
60.850000
 20
5.600000
 10
66.850000
 20
5.600000
 10
66.850000
 20
4.000000
 10
60.850000
 20
4.000000
  0
LWPOLYLINE
 90
5
 70
0
 10
60.850000
 20
24.000000
 10
60.850000
 20
25.600000
 10
66.850000
 20
25.600000
 10
66.850000
 20
24.000000
 10
60.850000
 20
24.000000
  0
LWPOLYLINE
 90
5
 70
0
 10
60.850000
 20
49.000000
 10
60.850000
 20
50.600000
 10
66.850000
 20
50.600000
 10
66.850000
 20
49.000000
 10
60.850000
 20
49.000000
999
Included file: baseplate.dxf
999
fliphorz:0 flipvert:0 tozero:0 addx:0.00 addy:56.50 scalex:1.00 scaley:1.00 minx:0.00 miny: 0.00 maxx:127.70 maxy:54.50
  0
LWPOLYLINE
 90
260
 70
0
 10
0.000000
 20
62.000000
 10
0.000000
 20
63.000000
 10
8.500000
 20
63.000000
 10
8.888000
 20
63.051000
 10
9.250000
 20
63.201000
 10
9.561000
 20
63.439000
 10
9.799000
 20
63.750000
 10
9.949000
 20
64.112000
 10
10.000000
 20
64.500000
 10
9.949000
 20
64.888000
 10
9.799000
 20
65.250000
 10
9.561000
 20
65.561000
 10
9.250000
 20
65.799000
 10
8.888000
 20
65.949000
 10
8.500000
 20
66.000000
 10
0.000000
 20
66.000000
 10
0.000000
 20
67.000000
 10
1.550000
 20
68.300000
 10
2.350000
 20
68.300000
 10
2.350000
 20
67.500000
 10
9.250000
 20
67.500000
 10
9.444000
 20
67.526000
 10
9.625000
 20
67.600000
 10
9.780000
 20
67.720000
 10
9.900000
 20
67.875000
 10
9.974000
 20
68.056000
 10
10.000000
 20
68.250000
 10
9.974000
 20
68.444000
 10
9.900000
 20
68.625000
 10
9.780000
 20
68.780000
 10
9.625000
 20
68.900000
 10
9.444000
 20
68.974000
 10
9.250000
 20
69.000000
 10
4.000000
 20
69.000000
 10
4.000000
 20
80.800000
 10
9.250000
 20
80.800000
 10
9.444000
 20
80.826000
 10
9.625000
 20
80.900000
 10
9.780000
 20
81.020000
 10
9.900000
 20
81.175000
 10
9.974000
 20
81.356000
 10
10.000000
 20
81.550000
 10
9.974000
 20
81.744000
 10
9.900000
 20
81.925000
 10
9.780000
 20
82.080000
 10
9.625000
 20
82.200000
 10
9.444000
 20
82.274000
 10
9.250000
 20
82.300000
 10
2.350000
 20
82.300000
 10
2.350000
 20
81.500000
 10
1.550000
 20
81.500000
 10
0.000000
 20
82.800000
 10
0.000000
 20
83.800000
 10
8.500000
 20
83.800000
 10
8.888000
 20
83.851000
 10
9.250000
 20
84.001000
 10
9.561000
 20
84.239000
 10
9.799000
 20
84.550000
 10
9.949000
 20
84.912000
 10
10.000000
 20
85.300000
 10
9.949000
 20
85.688000
 10
9.799000
 20
86.050000
 10
9.561000
 20
86.361000
 10
9.250000
 20
86.599000
 10
8.888000
 20
86.749000
 10
8.500000
 20
86.800000
 10
0.000000
 20
86.800000
 10
0.000000
 20
87.800000
 10
1.550000
 20
89.100000
 10
2.350000
 20
89.100000
 10
2.350000
 20
88.300000
 10
9.250000
 20
88.300000
 10
9.444000
 20
88.326000
 10
9.625000
 20
88.400000
 10
9.780000
 20
88.520000
 10
9.900000
 20
88.675000
 10
9.974000
 20
88.856000
 10
10.000000
 20
89.050000
 10
9.974000
 20
89.244000
 10
9.900000
 20
89.425000
 10
9.780000
 20
89.580000
 10
9.625000
 20
89.700000
 10
9.444000
 20
89.774000
 10
9.250000
 20
89.800000
 10
4.000000
 20
89.800000
 10
4.000000
 20
95.300000
 10
59.350000
 20
95.300000
 10
59.350000
 20
90.050000
 10
59.376000
 20
89.856000
 10
59.450000
 20
89.675000
 10
59.570000
 20
89.520000
 10
59.725000
 20
89.400000
 10
59.906000
 20
89.326000
 10
60.100000
 20
89.300000
 10
60.294000
 20
89.326000
 10
60.475000
 20
89.400000
 10
60.630000
 20
89.520000
 10
60.750000
 20
89.675000
 10
60.824000
 20
89.856000
 10
60.850000
 20
90.050000
 10
60.850000
 20
96.950000
 10
60.050000
 20
96.950000
 10
60.050000
 20
97.750000
 10
61.350000
 20
99.300000
 10
62.350000
 20
99.300000
 10
62.350000
 20
90.800000
 10
62.401000
 20
90.412000
 10
62.551000
 20
90.050000
 10
62.789000
 20
89.739000
 10
63.100000
 20
89.501000
 10
63.462000
 20
89.351000
 10
63.850000
 20
89.300000
 10
64.238000
 20
89.351000
 10
64.600000
 20
89.501000
 10
64.911000
 20
89.739000
 10
65.149000
 20
90.050000
 10
65.299000
 20
90.412000
 10
65.350000
 20
90.800000
 10
65.350000
 20
99.300000
 10
66.350000
 20
99.300000
 10
67.650000
 20
97.750000
 10
67.650000
 20
96.950000
 10
66.850000
 20
96.950000
 10
66.850000
 20
90.050000
 10
66.876000
 20
89.856000
 10
66.950000
 20
89.675000
 10
67.070000
 20
89.520000
 10
67.225000
 20
89.400000
 10
67.406000
 20
89.326000
 10
67.600000
 20
89.300000
 10
67.794000
 20
89.326000
 10
67.975000
 20
89.400000
 10
68.130000
 20
89.520000
 10
68.250000
 20
89.675000
 10
68.324000
 20
89.856000
 10
68.350000
 20
90.050000
 10
68.350000
 20
95.300000
 10
123.700000
 20
95.300000
 10
123.700000
 20
89.800000
 10
118.450000
 20
89.800000
 10
118.256000
 20
89.774000
 10
118.075000
 20
89.700000
 10
117.920000
 20
89.580000
 10
117.800000
 20
89.425000
 10
117.726000
 20
89.244000
 10
117.700000
 20
89.050000
 10
117.726000
 20
88.856000
 10
117.800000
 20
88.675000
 10
117.920000
 20
88.520000
 10
118.075000
 20
88.400000
 10
118.256000
 20
88.326000
 10
118.450000
 20
88.300000
 10
125.350000
 20
88.300000
 10
125.350000
 20
89.100000
 10
126.150000
 20
89.100000
 10
127.700000
 20
87.800000
 10
127.700000
 20
86.800000
 10
119.200000
 20
86.800000
 10
118.812000
 20
86.749000
 10
118.450000
 20
86.599000
 10
118.139000
 20
86.361000
 10
117.901000
 20
86.050000
 10
117.751000
 20
85.688000
 10
117.700000
 20
85.300000
 10
117.751000
 20
84.912000
 10
117.901000
 20
84.550000
 10
118.139000
 20
84.239000
 10
118.450000
 20
84.001000
 10
118.812000
 20
83.851000
 10
119.200000
 20
83.800000
 10
127.700000
 20
83.800000
 10
127.700000
 20
82.800000
 10
126.150000
 20
81.500000
 10
125.350000
 20
81.500000
 10
125.350000
 20
82.300000
 10
118.450000
 20
82.300000
 10
118.256000
 20
82.274000
 10
118.075000
 20
82.200000
 10
117.920000
 20
82.080000
 10
117.800000
 20
81.925000
 10
117.726000
 20
81.744000
 10
117.700000
 20
81.550000
 10
117.726000
 20
81.356000
 10
117.800000
 20
81.175000
 10
117.920000
 20
81.020000
 10
118.075000
 20
80.900000
 10
118.256000
 20
80.826000
 10
118.450000
 20
80.800000
 10
123.700000
 20
80.800000
 10
123.700000
 20
69.000000
 10
118.450000
 20
69.000000
 10
118.256000
 20
68.974000
 10
118.075000
 20
68.900000
 10
117.920000
 20
68.780000
 10
117.800000
 20
68.625000
 10
117.726000
 20
68.444000
 10
117.700000
 20
68.250000
 10
117.726000
 20
68.056000
 10
117.800000
 20
67.875000
 10
117.920000
 20
67.720000
 10
118.075000
 20
67.600000
 10
118.256000
 20
67.526000
 10
118.450000
 20
67.500000
 10
125.350000
 20
67.500000
 10
125.350000
 20
68.300000
 10
126.150000
 20
68.300000
 10
127.700000
 20
67.000000
 10
127.700000
 20
66.000000
 10
119.200000
 20
66.000000
 10
118.812000
 20
65.949000
 10
118.450000
 20
65.799000
 10
118.139000
 20
65.561000
 10
117.901000
 20
65.250000
 10
117.751000
 20
64.888000
 10
117.700000
 20
64.500000
 10
117.751000
 20
64.112000
 10
117.901000
 20
63.750000
 10
118.139000
 20
63.439000
 10
118.450000
 20
63.201000
 10
118.812000
 20
63.051000
 10
119.200000
 20
63.000000
 10
127.700000
 20
63.000000
 10
127.700000
 20
62.000000
 10
126.150000
 20
60.700000
 10
125.350000
 20
60.700000
 10
125.350000
 20
61.500000
 10
118.450000
 20
61.500000
 10
118.256000
 20
61.474000
 10
118.075000
 20
61.400000
 10
117.920000
 20
61.280000
 10
117.800000
 20
61.125000
 10
117.726000
 20
60.944000
 10
117.700000
 20
60.750000
 10
117.726000
 20
60.556000
 10
117.800000
 20
60.375000
 10
117.920000
 20
60.220000
 10
118.075000
 20
60.100000
 10
118.256000
 20
60.026000
 10
118.450000
 20
60.000000
 10
123.700000
 20
60.000000
 10
123.700000
 20
56.500000
 10
4.000000
 20
56.500000
 10
4.000000
 20
60.000000
 10
9.250000
 20
60.000000
 10
9.444000
 20
60.026000
 10
9.625000
 20
60.100000
 10
9.780000
 20
60.220000
 10
9.900000
 20
60.375000
 10
9.974000
 20
60.556000
 10
10.000000
 20
60.750000
 10
9.974000
 20
60.944000
 10
9.900000
 20
61.125000
 10
9.780000
 20
61.280000
 10
9.625000
 20
61.400000
 10
9.444000
 20
61.474000
 10
9.250000
 20
61.500000
 10
2.350000
 20
61.500000
 10
2.350000
 20
60.700000
 10
1.550000
 20
60.700000
 10
0.000000
 20
62.000000
999
Included file: tubeplate.dxf
999
fliphorz:0 flipvert:0 tozero:0 addx:0.00 addy:101.30 scalex:1.00 scaley:1.00 minx:0.00 miny: 0.00 maxx:127.70 maxy:54.50
  0
LWPOLYLINE
 90
260
 70
0
 10
0.000000
 20
106.800000
 10
0.000000
 20
107.800000
 10
8.500000
 20
107.800000
 10
8.888000
 20
107.851000
 10
9.250000
 20
108.001000
 10
9.561000
 20
108.239000
 10
9.799000
 20
108.550000
 10
9.949000
 20
108.912000
 10
10.000000
 20
109.300000
 10
9.949000
 20
109.688000
 10
9.799000
 20
110.050000
 10
9.561000
 20
110.361000
 10
9.250000
 20
110.599000
 10
8.888000
 20
110.749000
 10
8.500000
 20
110.800000
 10
0.000000
 20
110.800000
 10
0.000000
 20
111.800000
 10
1.550000
 20
113.100000
 10
2.350000
 20
113.100000
 10
2.350000
 20
112.300000
 10
9.250000
 20
112.300000
 10
9.444000
 20
112.326000
 10
9.625000
 20
112.400000
 10
9.780000
 20
112.520000
 10
9.900000
 20
112.675000
 10
9.974000
 20
112.856000
 10
10.000000
 20
113.050000
 10
9.974000
 20
113.244000
 10
9.900000
 20
113.425000
 10
9.780000
 20
113.580000
 10
9.625000
 20
113.700000
 10
9.444000
 20
113.774000
 10
9.250000
 20
113.800000
 10
4.000000
 20
113.800000
 10
4.000000
 20
125.600000
 10
9.250000
 20
125.600000
 10
9.444000
 20
125.626000
 10
9.625000
 20
125.700000
 10
9.780000
 20
125.820000
 10
9.900000
 20
125.975000
 10
9.974000
 20
126.156000
 10
10.000000
 20
126.350000
 10
9.974000
 20
126.544000
 10
9.900000
 20
126.725000
 10
9.780000
 20
126.880000
 10
9.625000
 20
127.000000
 10
9.444000
 20
127.074000
 10
9.250000
 20
127.100000
 10
2.350000
 20
127.100000
 10
2.350000
 20
126.300000
 10
1.550000
 20
126.300000
 10
0.000000
 20
127.600000
 10
0.000000
 20
128.600000
 10
8.500000
 20
128.600000
 10
8.888000
 20
128.651000
 10
9.250000
 20
128.801000
 10
9.561000
 20
129.039000
 10
9.799000
 20
129.350000
 10
9.949000
 20
129.712000
 10
10.000000
 20
130.100000
 10
9.949000
 20
130.488000
 10
9.799000
 20
130.850000
 10
9.561000
 20
131.161000
 10
9.250000
 20
131.399000
 10
8.888000
 20
131.549000
 10
8.500000
 20
131.600000
 10
0.000000
 20
131.600000
 10
0.000000
 20
132.600000
 10
1.550000
 20
133.900000
 10
2.350000
 20
133.900000
 10
2.350000
 20
133.100000
 10
9.250000
 20
133.100000
 10
9.444000
 20
133.126000
 10
9.625000
 20
133.200000
 10
9.780000
 20
133.320000
 10
9.900000
 20
133.475000
 10
9.974000
 20
133.656000
 10
10.000000
 20
133.850000
 10
9.974000
 20
134.044000
 10
9.900000
 20
134.225000
 10
9.780000
 20
134.380000
 10
9.625000
 20
134.500000
 10
9.444000
 20
134.574000
 10
9.250000
 20
134.600000
 10
4.000000
 20
134.600000
 10
4.000000
 20
140.100000
 10
59.350000
 20
140.100000
 10
59.350000
 20
134.850000
 10
59.376000
 20
134.656000
 10
59.450000
 20
134.475000
 10
59.570000
 20
134.320000
 10
59.725000
 20
134.200000
 10
59.906000
 20
134.126000
 10
60.100000
 20
134.100000
 10
60.294000
 20
134.126000
 10
60.475000
 20
134.200000
 10
60.630000
 20
134.320000
 10
60.750000
 20
134.475000
 10
60.824000
 20
134.656000
 10
60.850000
 20
134.850000
 10
60.850000
 20
141.750000
 10
60.050000
 20
141.750000
 10
60.050000
 20
142.550000
 10
61.350000
 20
144.100000
 10
62.350000
 20
144.100000
 10
62.350000
 20
135.600000
 10
62.401000
 20
135.212000
 10
62.551000
 20
134.850000
 10
62.789000
 20
134.539000
 10
63.100000
 20
134.301000
 10
63.462000
 20
134.151000
 10
63.850000
 20
134.100000
 10
64.238000
 20
134.151000
 10
64.600000
 20
134.301000
 10
64.911000
 20
134.539000
 10
65.149000
 20
134.850000
 10
65.299000
 20
135.212000
 10
65.350000
 20
135.600000
 10
65.350000
 20
144.100000
 10
66.350000
 20
144.100000
 10
67.650000
 20
142.550000
 10
67.650000
 20
141.750000
 10
66.850000
 20
141.750000
 10
66.850000
 20
134.850000
 10
66.876000
 20
134.656000
 10
66.950000
 20
134.475000
 10
67.070000
 20
134.320000
 10
67.225000
 20
134.200000
 10
67.406000
 20
134.126000
 10
67.600000
 20
134.100000
 10
67.794000
 20
134.126000
 10
67.975000
 20
134.200000
 10
68.130000
 20
134.320000
 10
68.250000
 20
134.475000
 10
68.324000
 20
134.656000
 10
68.350000
 20
134.850000
 10
68.350000
 20
140.100000
 10
123.700000
 20
140.100000
 10
123.700000
 20
134.600000
 10
118.450000
 20
134.600000
 10
118.256000
 20
134.574000
 10
118.075000
 20
134.500000
 10
117.920000
 20
134.380000
 10
117.800000
 20
134.225000
 10
117.726000
 20
134.044000
 10
117.700000
 20
133.850000
 10
117.726000
 20
133.656000
 10
117.800000
 20
133.475000
 10
117.920000
 20
133.320000
 10
118.075000
 20
133.200000
 10
118.256000
 20
133.126000
 10
118.450000
 20
133.100000
 10
125.350000
 20
133.100000
 10
125.350000
 20
133.900000
 10
126.150000
 20
133.900000
 10
127.700000
 20
132.600000
 10
127.700000
 20
131.600000
 10
119.200000
 20
131.600000
 10
118.812000
 20
131.549000
 10
118.450000
 20
131.399000
 10
118.139000
 20
131.161000
 10
117.901000
 20
130.850000
 10
117.751000
 20
130.488000
 10
117.700000
 20
130.100000
 10
117.751000
 20
129.712000
 10
117.901000
 20
129.350000
 10
118.139000
 20
129.039000
 10
118.450000
 20
128.801000
 10
118.812000
 20
128.651000
 10
119.200000
 20
128.600000
 10
127.700000
 20
128.600000
 10
127.700000
 20
127.600000
 10
126.150000
 20
126.300000
 10
125.350000
 20
126.300000
 10
125.350000
 20
127.100000
 10
118.450000
 20
127.100000
 10
118.256000
 20
127.074000
 10
118.075000
 20
127.000000
 10
117.920000
 20
126.880000
 10
117.800000
 20
126.725000
 10
117.726000
 20
126.544000
 10
117.700000
 20
126.350000
 10
117.726000
 20
126.156000
 10
117.800000
 20
125.975000
 10
117.920000
 20
125.820000
 10
118.075000
 20
125.700000
 10
118.256000
 20
125.626000
 10
118.450000
 20
125.600000
 10
123.700000
 20
125.600000
 10
123.700000
 20
113.800000
 10
118.450000
 20
113.800000
 10
118.256000
 20
113.774000
 10
118.075000
 20
113.700000
 10
117.920000
 20
113.580000
 10
117.800000
 20
113.425000
 10
117.726000
 20
113.244000
 10
117.700000
 20
113.050000
 10
117.726000
 20
112.856000
 10
117.800000
 20
112.675000
 10
117.920000
 20
112.520000
 10
118.075000
 20
112.400000
 10
118.256000
 20
112.326000
 10
118.450000
 20
112.300000
 10
125.350000
 20
112.300000
 10
125.350000
 20
113.100000
 10
126.150000
 20
113.100000
 10
127.700000
 20
111.800000
 10
127.700000
 20
110.800000
 10
119.200000
 20
110.800000
 10
118.812000
 20
110.749000
 10
118.450000
 20
110.599000
 10
118.139000
 20
110.361000
 10
117.901000
 20
110.050000
 10
117.751000
 20
109.688000
 10
117.700000
 20
109.300000
 10
117.751000
 20
108.912000
 10
117.901000
 20
108.550000
 10
118.139000
 20
108.239000
 10
118.450000
 20
108.001000
 10
118.812000
 20
107.851000
 10
119.200000
 20
107.800000
 10
127.700000
 20
107.800000
 10
127.700000
 20
106.800000
 10
126.150000
 20
105.500000
 10
125.350000
 20
105.500000
 10
125.350000
 20
106.300000
 10
118.450000
 20
106.300000
 10
118.256000
 20
106.274000
 10
118.075000
 20
106.200000
 10
117.920000
 20
106.080000
 10
117.800000
 20
105.925000
 10
117.726000
 20
105.744000
 10
117.700000
 20
105.550000
 10
117.726000
 20
105.356000
 10
117.800000
 20
105.175000
 10
117.920000
 20
105.020000
 10
118.075000
 20
104.900000
 10
118.256000
 20
104.826000
 10
118.450000
 20
104.800000
 10
123.700000
 20
104.800000
 10
123.700000
 20
101.300000
 10
4.000000
 20
101.300000
 10
4.000000
 20
104.800000
 10
9.250000
 20
104.800000
 10
9.444000
 20
104.826000
 10
9.625000
 20
104.900000
 10
9.780000
 20
105.020000
 10
9.900000
 20
105.175000
 10
9.974000
 20
105.356000
 10
10.000000
 20
105.550000
 10
9.974000
 20
105.744000
 10
9.900000
 20
105.925000
 10
9.780000
 20
106.080000
 10
9.625000
 20
106.200000
 10
9.444000
 20
106.274000
 10
9.250000
 20
106.300000
 10
2.350000
 20
106.300000
 10
2.350000
 20
105.500000
 10
1.550000
 20
105.500000
 10
0.000000
 20
106.800000
  0
LWPOLYLINE
 90
25
 70
0
 10
14.000000
 20
111.550000
 10
14.179000
 20
112.909000
 10
14.703000
 20
114.175000
 10
15.538000
 20
115.262000
 10
16.625000
 20
116.097000
 10
17.891000
 20
116.621000
 10
19.250000
 20
116.800000
 10
20.609000
 20
116.621000
 10
21.875000
 20
116.097000
 10
22.962000
 20
115.262000
 10
23.797000
 20
114.175000
 10
24.321000
 20
112.909000
 10
24.500000
 20
111.550000
 10
24.321000
 20
110.191000
 10
23.797000
 20
108.925000
 10
22.962000
 20
107.838000
 10
21.875000
 20
107.003000
 10
20.609000
 20
106.479000
 10
19.250000
 20
106.300000
 10
17.891000
 20
106.479000
 10
16.625000
 20
107.003000
 10
15.538000
 20
107.838000
 10
14.703000
 20
108.925000
 10
14.179000
 20
110.191000
 10
14.000000
 20
111.550000
  0
LWPOLYLINE
 90
25
 70
0
 10
23.250000
 20
125.950000
 10
23.494000
 20
127.801000
 10
24.208000
 20
129.525000
 10
25.344000
 20
131.006000
 10
26.825000
 20
132.142000
 10
28.549000
 20
132.856000
 10
30.400000
 20
133.100000
 10
32.251000
 20
132.856000
 10
33.975000
 20
132.142000
 10
35.456000
 20
131.006000
 10
36.592000
 20
129.525000
 10
37.306000
 20
127.801000
 10
37.550000
 20
125.950000
 10
37.306000
 20
124.099000
 10
36.592000
 20
122.375000
 10
35.456000
 20
120.894000
 10
33.975000
 20
119.758000
 10
32.251000
 20
119.044000
 10
30.400000
 20
118.800000
 10
28.549000
 20
119.044000
 10
26.825000
 20
119.758000
 10
25.344000
 20
120.894000
 10
24.208000
 20
122.375000
 10
23.494000
 20
124.099000
 10
23.250000
 20
125.950000
  0
LWPOLYLINE
 90
25
 70
0
 10
36.300000
 20
111.550000
 10
36.479000
 20
112.909000
 10
37.003000
 20
114.175000
 10
37.838000
 20
115.262000
 10
38.925000
 20
116.097000
 10
40.191000
 20
116.621000
 10
41.550000
 20
116.800000
 10
42.909000
 20
116.621000
 10
44.175000
 20
116.097000
 10
45.262000
 20
115.262000
 10
46.097000
 20
114.175000
 10
46.621000
 20
112.909000
 10
46.800000
 20
111.550000
 10
46.621000
 20
110.191000
 10
46.097000
 20
108.925000
 10
45.262000
 20
107.838000
 10
44.175000
 20
107.003000
 10
42.909000
 20
106.479000
 10
41.550000
 20
106.300000
 10
40.191000
 20
106.479000
 10
38.925000
 20
107.003000
 10
37.838000
 20
107.838000
 10
37.003000
 20
108.925000
 10
36.479000
 20
110.191000
 10
36.300000
 20
111.550000
  0
LWPOLYLINE
 90
25
 70
0
 10
45.550000
 20
125.950000
 10
45.794000
 20
127.801000
 10
46.508000
 20
129.525000
 10
47.644000
 20
131.006000
 10
49.125000
 20
132.142000
 10
50.849000
 20
132.856000
 10
52.700000
 20
133.100000
 10
54.551000
 20
132.856000
 10
56.275000
 20
132.142000
 10
57.756000
 20
131.006000
 10
58.892000
 20
129.525000
 10
59.606000
 20
127.801000
 10
59.850000
 20
125.950000
 10
59.606000
 20
124.099000
 10
58.892000
 20
122.375000
 10
57.756000
 20
120.894000
 10
56.275000
 20
119.758000
 10
54.551000
 20
119.044000
 10
52.700000
 20
118.800000
 10
50.849000
 20
119.044000
 10
49.125000
 20
119.758000
 10
47.644000
 20
120.894000
 10
46.508000
 20
122.375000
 10
45.794000
 20
124.099000
 10
45.550000
 20
125.950000
  0
LWPOLYLINE
 90
25
 70
0
 10
58.600000
 20
111.550000
 10
58.779000
 20
112.909000
 10
59.303000
 20
114.175000
 10
60.138000
 20
115.262000
 10
61.225000
 20
116.097000
 10
62.491000
 20
116.621000
 10
63.850000
 20
116.800000
 10
65.209000
 20
116.621000
 10
66.475000
 20
116.097000
 10
67.562000
 20
115.262000
 10
68.397000
 20
114.175000
 10
68.921000
 20
112.909000
 10
69.100000
 20
111.550000
 10
68.921000
 20
110.191000
 10
68.397000
 20
108.925000
 10
67.562000
 20
107.838000
 10
66.475000
 20
107.003000
 10
65.209000
 20
106.479000
 10
63.850000
 20
106.300000
 10
62.491000
 20
106.479000
 10
61.225000
 20
107.003000
 10
60.138000
 20
107.838000
 10
59.303000
 20
108.925000
 10
58.779000
 20
110.191000
 10
58.600000
 20
111.550000
  0
LWPOLYLINE
 90
25
 70
0
 10
67.850000
 20
125.950000
 10
68.094000
 20
127.801000
 10
68.808000
 20
129.525000
 10
69.944000
 20
131.006000
 10
71.425000
 20
132.142000
 10
73.149000
 20
132.856000
 10
75.000000
 20
133.100000
 10
76.851000
 20
132.856000
 10
78.575000
 20
132.142000
 10
80.056000
 20
131.006000
 10
81.192000
 20
129.525000
 10
81.906000
 20
127.801000
 10
82.150000
 20
125.950000
 10
81.906000
 20
124.099000
 10
81.192000
 20
122.375000
 10
80.056000
 20
120.894000
 10
78.575000
 20
119.758000
 10
76.851000
 20
119.044000
 10
75.000000
 20
118.800000
 10
73.149000
 20
119.044000
 10
71.425000
 20
119.758000
 10
69.944000
 20
120.894000
 10
68.808000
 20
122.375000
 10
68.094000
 20
124.099000
 10
67.850000
 20
125.950000
  0
LWPOLYLINE
 90
25
 70
0
 10
80.900000
 20
111.550000
 10
81.079000
 20
112.909000
 10
81.603000
 20
114.175000
 10
82.438000
 20
115.262000
 10
83.525000
 20
116.097000
 10
84.791000
 20
116.621000
 10
86.150000
 20
116.800000
 10
87.509000
 20
116.621000
 10
88.775000
 20
116.097000
 10
89.862000
 20
115.262000
 10
90.697000
 20
114.175000
 10
91.221000
 20
112.909000
 10
91.400000
 20
111.550000
 10
91.221000
 20
110.191000
 10
90.697000
 20
108.925000
 10
89.862000
 20
107.838000
 10
88.775000
 20
107.003000
 10
87.509000
 20
106.479000
 10
86.150000
 20
106.300000
 10
84.791000
 20
106.479000
 10
83.525000
 20
107.003000
 10
82.438000
 20
107.838000
 10
81.603000
 20
108.925000
 10
81.079000
 20
110.191000
 10
80.900000
 20
111.550000
  0
LWPOLYLINE
 90
25
 70
0
 10
90.150000
 20
125.950000
 10
90.394000
 20
127.801000
 10
91.108000
 20
129.525000
 10
92.244000
 20
131.006000
 10
93.725000
 20
132.142000
 10
95.449000
 20
132.856000
 10
97.300000
 20
133.100000
 10
99.151000
 20
132.856000
 10
100.875000
 20
132.142000
 10
102.356000
 20
131.006000
 10
103.492000
 20
129.525000
 10
104.206000
 20
127.801000
 10
104.450000
 20
125.950000
 10
104.206000
 20
124.099000
 10
103.492000
 20
122.375000
 10
102.356000
 20
120.894000
 10
100.875000
 20
119.758000
 10
99.151000
 20
119.044000
 10
97.300000
 20
118.800000
 10
95.449000
 20
119.044000
 10
93.725000
 20
119.758000
 10
92.244000
 20
120.894000
 10
91.108000
 20
122.375000
 10
90.394000
 20
124.099000
 10
90.150000
 20
125.950000
  0
LWPOLYLINE
 90
25
 70
0
 10
103.200000
 20
111.550000
 10
103.379000
 20
112.909000
 10
103.903000
 20
114.175000
 10
104.738000
 20
115.262000
 10
105.825000
 20
116.097000
 10
107.091000
 20
116.621000
 10
108.450000
 20
116.800000
 10
109.809000
 20
116.621000
 10
111.075000
 20
116.097000
 10
112.162000
 20
115.262000
 10
112.997000
 20
114.175000
 10
113.521000
 20
112.909000
 10
113.700000
 20
111.550000
 10
113.521000
 20
110.191000
 10
112.997000
 20
108.925000
 10
112.162000
 20
107.838000
 10
111.075000
 20
107.003000
 10
109.809000
 20
106.479000
 10
108.450000
 20
106.300000
 10
107.091000
 20
106.479000
 10
105.825000
 20
107.003000
 10
104.738000
 20
107.838000
 10
103.903000
 20
108.925000
 10
103.379000
 20
110.191000
 10
103.200000
 20
111.550000
999
Included file: tubeplate.dxf
999
fliphorz:0 flipvert:0 tozero:0 addx:0.00 addy:146.10 scalex:1.00 scaley:1.00 minx:0.00 miny: 0.00 maxx:127.70 maxy:54.50
  0
LWPOLYLINE
 90
260
 70
0
 10
0.000000
 20
151.600000
 10
0.000000
 20
152.600000
 10
8.500000
 20
152.600000
 10
8.888000
 20
152.651000
 10
9.250000
 20
152.801000
 10
9.561000
 20
153.039000
 10
9.799000
 20
153.350000
 10
9.949000
 20
153.712000
 10
10.000000
 20
154.100000
 10
9.949000
 20
154.488000
 10
9.799000
 20
154.850000
 10
9.561000
 20
155.161000
 10
9.250000
 20
155.399000
 10
8.888000
 20
155.549000
 10
8.500000
 20
155.600000
 10
0.000000
 20
155.600000
 10
0.000000
 20
156.600000
 10
1.550000
 20
157.900000
 10
2.350000
 20
157.900000
 10
2.350000
 20
157.100000
 10
9.250000
 20
157.100000
 10
9.444000
 20
157.126000
 10
9.625000
 20
157.200000
 10
9.780000
 20
157.320000
 10
9.900000
 20
157.475000
 10
9.974000
 20
157.656000
 10
10.000000
 20
157.850000
 10
9.974000
 20
158.044000
 10
9.900000
 20
158.225000
 10
9.780000
 20
158.380000
 10
9.625000
 20
158.500000
 10
9.444000
 20
158.574000
 10
9.250000
 20
158.600000
 10
4.000000
 20
158.600000
 10
4.000000
 20
170.400000
 10
9.250000
 20
170.400000
 10
9.444000
 20
170.426000
 10
9.625000
 20
170.500000
 10
9.780000
 20
170.620000
 10
9.900000
 20
170.775000
 10
9.974000
 20
170.956000
 10
10.000000
 20
171.150000
 10
9.974000
 20
171.344000
 10
9.900000
 20
171.525000
 10
9.780000
 20
171.680000
 10
9.625000
 20
171.800000
 10
9.444000
 20
171.874000
 10
9.250000
 20
171.900000
 10
2.350000
 20
171.900000
 10
2.350000
 20
171.100000
 10
1.550000
 20
171.100000
 10
0.000000
 20
172.400000
 10
0.000000
 20
173.400000
 10
8.500000
 20
173.400000
 10
8.888000
 20
173.451000
 10
9.250000
 20
173.601000
 10
9.561000
 20
173.839000
 10
9.799000
 20
174.150000
 10
9.949000
 20
174.512000
 10
10.000000
 20
174.900000
 10
9.949000
 20
175.288000
 10
9.799000
 20
175.650000
 10
9.561000
 20
175.961000
 10
9.250000
 20
176.199000
 10
8.888000
 20
176.349000
 10
8.500000
 20
176.400000
 10
0.000000
 20
176.400000
 10
0.000000
 20
177.400000
 10
1.550000
 20
178.700000
 10
2.350000
 20
178.700000
 10
2.350000
 20
177.900000
 10
9.250000
 20
177.900000
 10
9.444000
 20
177.926000
 10
9.625000
 20
178.000000
 10
9.780000
 20
178.120000
 10
9.900000
 20
178.275000
 10
9.974000
 20
178.456000
 10
10.000000
 20
178.650000
 10
9.974000
 20
178.844000
 10
9.900000
 20
179.025000
 10
9.780000
 20
179.180000
 10
9.625000
 20
179.300000
 10
9.444000
 20
179.374000
 10
9.250000
 20
179.400000
 10
4.000000
 20
179.400000
 10
4.000000
 20
184.900000
 10
59.350000
 20
184.900000
 10
59.350000
 20
179.650000
 10
59.376000
 20
179.456000
 10
59.450000
 20
179.275000
 10
59.570000
 20
179.120000
 10
59.725000
 20
179.000000
 10
59.906000
 20
178.926000
 10
60.100000
 20
178.900000
 10
60.294000
 20
178.926000
 10
60.475000
 20
179.000000
 10
60.630000
 20
179.120000
 10
60.750000
 20
179.275000
 10
60.824000
 20
179.456000
 10
60.850000
 20
179.650000
 10
60.850000
 20
186.550000
 10
60.050000
 20
186.550000
 10
60.050000
 20
187.350000
 10
61.350000
 20
188.900000
 10
62.350000
 20
188.900000
 10
62.350000
 20
180.400000
 10
62.401000
 20
180.012000
 10
62.551000
 20
179.650000
 10
62.789000
 20
179.339000
 10
63.100000
 20
179.101000
 10
63.462000
 20
178.951000
 10
63.850000
 20
178.900000
 10
64.238000
 20
178.951000
 10
64.600000
 20
179.101000
 10
64.911000
 20
179.339000
 10
65.149000
 20
179.650000
 10
65.299000
 20
180.012000
 10
65.350000
 20
180.400000
 10
65.350000
 20
188.900000
 10
66.350000
 20
188.900000
 10
67.650000
 20
187.350000
 10
67.650000
 20
186.550000
 10
66.850000
 20
186.550000
 10
66.850000
 20
179.650000
 10
66.876000
 20
179.456000
 10
66.950000
 20
179.275000
 10
67.070000
 20
179.120000
 10
67.225000
 20
179.000000
 10
67.406000
 20
178.926000
 10
67.600000
 20
178.900000
 10
67.794000
 20
178.926000
 10
67.975000
 20
179.000000
 10
68.130000
 20
179.120000
 10
68.250000
 20
179.275000
 10
68.324000
 20
179.456000
 10
68.350000
 20
179.650000
 10
68.350000
 20
184.900000
 10
123.700000
 20
184.900000
 10
123.700000
 20
179.400000
 10
118.450000
 20
179.400000
 10
118.256000
 20
179.374000
 10
118.075000
 20
179.300000
 10
117.920000
 20
179.180000
 10
117.800000
 20
179.025000
 10
117.726000
 20
178.844000
 10
117.700000
 20
178.650000
 10
117.726000
 20
178.456000
 10
117.800000
 20
178.275000
 10
117.920000
 20
178.120000
 10
118.075000
 20
178.000000
 10
118.256000
 20
177.926000
 10
118.450000
 20
177.900000
 10
125.350000
 20
177.900000
 10
125.350000
 20
178.700000
 10
126.150000
 20
178.700000
 10
127.700000
 20
177.400000
 10
127.700000
 20
176.400000
 10
119.200000
 20
176.400000
 10
118.812000
 20
176.349000
 10
118.450000
 20
176.199000
 10
118.139000
 20
175.961000
 10
117.901000
 20
175.650000
 10
117.751000
 20
175.288000
 10
117.700000
 20
174.900000
 10
117.751000
 20
174.512000
 10
117.901000
 20
174.150000
 10
118.139000
 20
173.839000
 10
118.450000
 20
173.601000
 10
118.812000
 20
173.451000
 10
119.200000
 20
173.400000
 10
127.700000
 20
173.400000
 10
127.700000
 20
172.400000
 10
126.150000
 20
171.100000
 10
125.350000
 20
171.100000
 10
125.350000
 20
171.900000
 10
118.450000
 20
171.900000
 10
118.256000
 20
171.874000
 10
118.075000
 20
171.800000
 10
117.920000
 20
171.680000
 10
117.800000
 20
171.525000
 10
117.726000
 20
171.344000
 10
117.700000
 20
171.150000
 10
117.726000
 20
170.956000
 10
117.800000
 20
170.775000
 10
117.920000
 20
170.620000
 10
118.075000
 20
170.500000
 10
118.256000
 20
170.426000
 10
118.450000
 20
170.400000
 10
123.700000
 20
170.400000
 10
123.700000
 20
158.600000
 10
118.450000
 20
158.600000
 10
118.256000
 20
158.574000
 10
118.075000
 20
158.500000
 10
117.920000
 20
158.380000
 10
117.800000
 20
158.225000
 10
117.726000
 20
158.044000
 10
117.700000
 20
157.850000
 10
117.726000
 20
157.656000
 10
117.800000
 20
157.475000
 10
117.920000
 20
157.320000
 10
118.075000
 20
157.200000
 10
118.256000
 20
157.126000
 10
118.450000
 20
157.100000
 10
125.350000
 20
157.100000
 10
125.350000
 20
157.900000
 10
126.150000
 20
157.900000
 10
127.700000
 20
156.600000
 10
127.700000
 20
155.600000
 10
119.200000
 20
155.600000
 10
118.812000
 20
155.549000
 10
118.450000
 20
155.399000
 10
118.139000
 20
155.161000
 10
117.901000
 20
154.850000
 10
117.751000
 20
154.488000
 10
117.700000
 20
154.100000
 10
117.751000
 20
153.712000
 10
117.901000
 20
153.350000
 10
118.139000
 20
153.039000
 10
118.450000
 20
152.801000
 10
118.812000
 20
152.651000
 10
119.200000
 20
152.600000
 10
127.700000
 20
152.600000
 10
127.700000
 20
151.600000
 10
126.150000
 20
150.300000
 10
125.350000
 20
150.300000
 10
125.350000
 20
151.100000
 10
118.450000
 20
151.100000
 10
118.256000
 20
151.074000
 10
118.075000
 20
151.000000
 10
117.920000
 20
150.880000
 10
117.800000
 20
150.725000
 10
117.726000
 20
150.544000
 10
117.700000
 20
150.350000
 10
117.726000
 20
150.156000
 10
117.800000
 20
149.975000
 10
117.920000
 20
149.820000
 10
118.075000
 20
149.700000
 10
118.256000
 20
149.626000
 10
118.450000
 20
149.600000
 10
123.700000
 20
149.600000
 10
123.700000
 20
146.100000
 10
4.000000
 20
146.100000
 10
4.000000
 20
149.600000
 10
9.250000
 20
149.600000
 10
9.444000
 20
149.626000
 10
9.625000
 20
149.700000
 10
9.780000
 20
149.820000
 10
9.900000
 20
149.975000
 10
9.974000
 20
150.156000
 10
10.000000
 20
150.350000
 10
9.974000
 20
150.544000
 10
9.900000
 20
150.725000
 10
9.780000
 20
150.880000
 10
9.625000
 20
151.000000
 10
9.444000
 20
151.074000
 10
9.250000
 20
151.100000
 10
2.350000
 20
151.100000
 10
2.350000
 20
150.300000
 10
1.550000
 20
150.300000
 10
0.000000
 20
151.600000
  0
LWPOLYLINE
 90
25
 70
0
 10
14.000000
 20
156.350000
 10
14.179000
 20
157.709000
 10
14.703000
 20
158.975000
 10
15.538000
 20
160.062000
 10
16.625000
 20
160.897000
 10
17.891000
 20
161.421000
 10
19.250000
 20
161.600000
 10
20.609000
 20
161.421000
 10
21.875000
 20
160.897000
 10
22.962000
 20
160.062000
 10
23.797000
 20
158.975000
 10
24.321000
 20
157.709000
 10
24.500000
 20
156.350000
 10
24.321000
 20
154.991000
 10
23.797000
 20
153.725000
 10
22.962000
 20
152.638000
 10
21.875000
 20
151.803000
 10
20.609000
 20
151.279000
 10
19.250000
 20
151.100000
 10
17.891000
 20
151.279000
 10
16.625000
 20
151.803000
 10
15.538000
 20
152.638000
 10
14.703000
 20
153.725000
 10
14.179000
 20
154.991000
 10
14.000000
 20
156.350000
  0
LWPOLYLINE
 90
25
 70
0
 10
23.250000
 20
170.750000
 10
23.494000
 20
172.601000
 10
24.208000
 20
174.325000
 10
25.344000
 20
175.806000
 10
26.825000
 20
176.942000
 10
28.549000
 20
177.656000
 10
30.400000
 20
177.900000
 10
32.251000
 20
177.656000
 10
33.975000
 20
176.942000
 10
35.456000
 20
175.806000
 10
36.592000
 20
174.325000
 10
37.306000
 20
172.601000
 10
37.550000
 20
170.750000
 10
37.306000
 20
168.899000
 10
36.592000
 20
167.175000
 10
35.456000
 20
165.694000
 10
33.975000
 20
164.558000
 10
32.251000
 20
163.844000
 10
30.400000
 20
163.600000
 10
28.549000
 20
163.844000
 10
26.825000
 20
164.558000
 10
25.344000
 20
165.694000
 10
24.208000
 20
167.175000
 10
23.494000
 20
168.899000
 10
23.250000
 20
170.750000
  0
LWPOLYLINE
 90
25
 70
0
 10
36.300000
 20
156.350000
 10
36.479000
 20
157.709000
 10
37.003000
 20
158.975000
 10
37.838000
 20
160.062000
 10
38.925000
 20
160.897000
 10
40.191000
 20
161.421000
 10
41.550000
 20
161.600000
 10
42.909000
 20
161.421000
 10
44.175000
 20
160.897000
 10
45.262000
 20
160.062000
 10
46.097000
 20
158.975000
 10
46.621000
 20
157.709000
 10
46.800000
 20
156.350000
 10
46.621000
 20
154.991000
 10
46.097000
 20
153.725000
 10
45.262000
 20
152.638000
 10
44.175000
 20
151.803000
 10
42.909000
 20
151.279000
 10
41.550000
 20
151.100000
 10
40.191000
 20
151.279000
 10
38.925000
 20
151.803000
 10
37.838000
 20
152.638000
 10
37.003000
 20
153.725000
 10
36.479000
 20
154.991000
 10
36.300000
 20
156.350000
  0
LWPOLYLINE
 90
25
 70
0
 10
45.550000
 20
170.750000
 10
45.794000
 20
172.601000
 10
46.508000
 20
174.325000
 10
47.644000
 20
175.806000
 10
49.125000
 20
176.942000
 10
50.849000
 20
177.656000
 10
52.700000
 20
177.900000
 10
54.551000
 20
177.656000
 10
56.275000
 20
176.942000
 10
57.756000
 20
175.806000
 10
58.892000
 20
174.325000
 10
59.606000
 20
172.601000
 10
59.850000
 20
170.750000
 10
59.606000
 20
168.899000
 10
58.892000
 20
167.175000
 10
57.756000
 20
165.694000
 10
56.275000
 20
164.558000
 10
54.551000
 20
163.844000
 10
52.700000
 20
163.600000
 10
50.849000
 20
163.844000
 10
49.125000
 20
164.558000
 10
47.644000
 20
165.694000
 10
46.508000
 20
167.175000
 10
45.794000
 20
168.899000
 10
45.550000
 20
170.750000
  0
LWPOLYLINE
 90
25
 70
0
 10
58.600000
 20
156.350000
 10
58.779000
 20
157.709000
 10
59.303000
 20
158.975000
 10
60.138000
 20
160.062000
 10
61.225000
 20
160.897000
 10
62.491000
 20
161.421000
 10
63.850000
 20
161.600000
 10
65.209000
 20
161.421000
 10
66.475000
 20
160.897000
 10
67.562000
 20
160.062000
 10
68.397000
 20
158.975000
 10
68.921000
 20
157.709000
 10
69.100000
 20
156.350000
 10
68.921000
 20
154.991000
 10
68.397000
 20
153.725000
 10
67.562000
 20
152.638000
 10
66.475000
 20
151.803000
 10
65.209000
 20
151.279000
 10
63.850000
 20
151.100000
 10
62.491000
 20
151.279000
 10
61.225000
 20
151.803000
 10
60.138000
 20
152.638000
 10
59.303000
 20
153.725000
 10
58.779000
 20
154.991000
 10
58.600000
 20
156.350000
  0
LWPOLYLINE
 90
25
 70
0
 10
67.850000
 20
170.750000
 10
68.094000
 20
172.601000
 10
68.808000
 20
174.325000
 10
69.944000
 20
175.806000
 10
71.425000
 20
176.942000
 10
73.149000
 20
177.656000
 10
75.000000
 20
177.900000
 10
76.851000
 20
177.656000
 10
78.575000
 20
176.942000
 10
80.056000
 20
175.806000
 10
81.192000
 20
174.325000
 10
81.906000
 20
172.601000
 10
82.150000
 20
170.750000
 10
81.906000
 20
168.899000
 10
81.192000
 20
167.175000
 10
80.056000
 20
165.694000
 10
78.575000
 20
164.558000
 10
76.851000
 20
163.844000
 10
75.000000
 20
163.600000
 10
73.149000
 20
163.844000
 10
71.425000
 20
164.558000
 10
69.944000
 20
165.694000
 10
68.808000
 20
167.175000
 10
68.094000
 20
168.899000
 10
67.850000
 20
170.750000
  0
LWPOLYLINE
 90
25
 70
0
 10
80.900000
 20
156.350000
 10
81.079000
 20
157.709000
 10
81.603000
 20
158.975000
 10
82.438000
 20
160.062000
 10
83.525000
 20
160.897000
 10
84.791000
 20
161.421000
 10
86.150000
 20
161.600000
 10
87.509000
 20
161.421000
 10
88.775000
 20
160.897000
 10
89.862000
 20
160.062000
 10
90.697000
 20
158.975000
 10
91.221000
 20
157.709000
 10
91.400000
 20
156.350000
 10
91.221000
 20
154.991000
 10
90.697000
 20
153.725000
 10
89.862000
 20
152.638000
 10
88.775000
 20
151.803000
 10
87.509000
 20
151.279000
 10
86.150000
 20
151.100000
 10
84.791000
 20
151.279000
 10
83.525000
 20
151.803000
 10
82.438000
 20
152.638000
 10
81.603000
 20
153.725000
 10
81.079000
 20
154.991000
 10
80.900000
 20
156.350000
  0
LWPOLYLINE
 90
25
 70
0
 10
90.150000
 20
170.750000
 10
90.394000
 20
172.601000
 10
91.108000
 20
174.325000
 10
92.244000
 20
175.806000
 10
93.725000
 20
176.942000
 10
95.449000
 20
177.656000
 10
97.300000
 20
177.900000
 10
99.151000
 20
177.656000
 10
100.875000
 20
176.942000
 10
102.356000
 20
175.806000
 10
103.492000
 20
174.325000
 10
104.206000
 20
172.601000
 10
104.450000
 20
170.750000
 10
104.206000
 20
168.899000
 10
103.492000
 20
167.175000
 10
102.356000
 20
165.694000
 10
100.875000
 20
164.558000
 10
99.151000
 20
163.844000
 10
97.300000
 20
163.600000
 10
95.449000
 20
163.844000
 10
93.725000
 20
164.558000
 10
92.244000
 20
165.694000
 10
91.108000
 20
167.175000
 10
90.394000
 20
168.899000
 10
90.150000
 20
170.750000
  0
LWPOLYLINE
 90
25
 70
0
 10
103.200000
 20
156.350000
 10
103.379000
 20
157.709000
 10
103.903000
 20
158.975000
 10
104.738000
 20
160.062000
 10
105.825000
 20
160.897000
 10
107.091000
 20
161.421000
 10
108.450000
 20
161.600000
 10
109.809000
 20
161.421000
 10
111.075000
 20
160.897000
 10
112.162000
 20
160.062000
 10
112.997000
 20
158.975000
 10
113.521000
 20
157.709000
 10
113.700000
 20
156.350000
 10
113.521000
 20
154.991000
 10
112.997000
 20
153.725000
 10
112.162000
 20
152.638000
 10
111.075000
 20
151.803000
 10
109.809000
 20
151.279000
 10
108.450000
 20
151.100000
 10
107.091000
 20
151.279000
 10
105.825000
 20
151.803000
 10
104.738000
 20
152.638000
 10
103.903000
 20
153.725000
 10
103.379000
 20
154.991000
 10
103.200000
 20
156.350000
999
Included file: sideleg.dxf
999
fliphorz:0 flipvert:0 tozero:0 addx:0.00 addy:187.90 scalex:1.00 scaley:1.00 minx:0.00 miny: 0.00 maxx:127.70 maxy:54.50
  0
LWPOLYLINE
 90
19
 70
0
 10
0.000000
 20
187.900000
 10
0.000000
 20
200.400000
 10
104.300000
 20
200.400000
 10
104.300000
 20
187.900000
 10
100.300000
 20
187.900000
 10
100.215000
 20
188.547000
 10
99.965000
 20
189.150000
 10
99.568000
 20
189.668000
 10
99.050000
 20
190.065000
 10
98.447000
 20
190.315000
 10
97.800000
 20
190.400000
 10
6.500000
 20
190.400000
 10
5.853000
 20
190.315000
 10
5.250000
 20
190.065000
 10
4.732000
 20
189.668000
 10
4.335000
 20
189.150000
 10
4.085000
 20
188.547000
 10
4.000000
 20
187.900000
 10
0.000000
 20
187.900000
  0
LWPOLYLINE
 90
25
 70
0
 10
38.500000
 20
195.400000
 10
38.551000
 20
195.788000
 10
38.701000
 20
196.150000
 10
38.939000
 20
196.461000
 10
39.250000
 20
196.699000
 10
39.612000
 20
196.849000
 10
40.000000
 20
196.900000
 10
40.388000
 20
196.849000
 10
40.750000
 20
196.699000
 10
41.061000
 20
196.461000
 10
41.299000
 20
196.150000
 10
41.449000
 20
195.788000
 10
41.500000
 20
195.400000
 10
41.449000
 20
195.012000
 10
41.299000
 20
194.650000
 10
41.061000
 20
194.339000
 10
40.750000
 20
194.101000
 10
40.388000
 20
193.951000
 10
40.000000
 20
193.900000
 10
39.612000
 20
193.951000
 10
39.250000
 20
194.101000
 10
38.939000
 20
194.339000
 10
38.701000
 20
194.650000
 10
38.551000
 20
195.012000
 10
38.500000
 20
195.400000
  0
LWPOLYLINE
 90
25
 70
0
 10
64.800000
 20
195.400000
 10
64.851000
 20
195.788000
 10
65.001000
 20
196.150000
 10
65.239000
 20
196.461000
 10
65.550000
 20
196.699000
 10
65.912000
 20
196.849000
 10
66.300000
 20
196.900000
 10
66.688000
 20
196.849000
 10
67.050000
 20
196.699000
 10
67.361000
 20
196.461000
 10
67.599000
 20
196.150000
 10
67.749000
 20
195.788000
 10
67.800000
 20
195.400000
 10
67.749000
 20
195.012000
 10
67.599000
 20
194.650000
 10
67.361000
 20
194.339000
 10
67.050000
 20
194.101000
 10
66.688000
 20
193.951000
 10
66.300000
 20
193.900000
 10
65.912000
 20
193.951000
 10
65.550000
 20
194.101000
 10
65.239000
 20
194.339000
 10
65.001000
 20
194.650000
 10
64.851000
 20
195.012000
 10
64.800000
 20
195.400000
999
Included file: sideleg.dxf
999
fliphorz:0 flipvert:0 tozero:0 addx:0.00 addy:202.40 scalex:1.00 scaley:1.00 minx:0.00 miny: 0.00 maxx:127.70 maxy:54.50
  0
LWPOLYLINE
 90
19
 70
0
 10
0.000000
 20
202.400000
 10
0.000000
 20
214.900000
 10
104.300000
 20
214.900000
 10
104.300000
 20
202.400000
 10
100.300000
 20
202.400000
 10
100.215000
 20
203.047000
 10
99.965000
 20
203.650000
 10
99.568000
 20
204.168000
 10
99.050000
 20
204.565000
 10
98.447000
 20
204.815000
 10
97.800000
 20
204.900000
 10
6.500000
 20
204.900000
 10
5.853000
 20
204.815000
 10
5.250000
 20
204.565000
 10
4.732000
 20
204.168000
 10
4.335000
 20
203.650000
 10
4.085000
 20
203.047000
 10
4.000000
 20
202.400000
 10
0.000000
 20
202.400000
  0
LWPOLYLINE
 90
25
 70
0
 10
38.500000
 20
209.900000
 10
38.551000
 20
210.288000
 10
38.701000
 20
210.650000
 10
38.939000
 20
210.961000
 10
39.250000
 20
211.199000
 10
39.612000
 20
211.349000
 10
40.000000
 20
211.400000
 10
40.388000
 20
211.349000
 10
40.750000
 20
211.199000
 10
41.061000
 20
210.961000
 10
41.299000
 20
210.650000
 10
41.449000
 20
210.288000
 10
41.500000
 20
209.900000
 10
41.449000
 20
209.512000
 10
41.299000
 20
209.150000
 10
41.061000
 20
208.839000
 10
40.750000
 20
208.601000
 10
40.388000
 20
208.451000
 10
40.000000
 20
208.400000
 10
39.612000
 20
208.451000
 10
39.250000
 20
208.601000
 10
38.939000
 20
208.839000
 10
38.701000
 20
209.150000
 10
38.551000
 20
209.512000
 10
38.500000
 20
209.900000
  0
LWPOLYLINE
 90
25
 70
0
 10
64.800000
 20
209.900000
 10
64.851000
 20
210.288000
 10
65.001000
 20
210.650000
 10
65.239000
 20
210.961000
 10
65.550000
 20
211.199000
 10
65.912000
 20
211.349000
 10
66.300000
 20
211.400000
 10
66.688000
 20
211.349000
 10
67.050000
 20
211.199000
 10
67.361000
 20
210.961000
 10
67.599000
 20
210.650000
 10
67.749000
 20
210.288000
 10
67.800000
 20
209.900000
 10
67.749000
 20
209.512000
 10
67.599000
 20
209.150000
 10
67.361000
 20
208.839000
 10
67.050000
 20
208.601000
 10
66.688000
 20
208.451000
 10
66.300000
 20
208.400000
 10
65.912000
 20
208.451000
 10
65.550000
 20
208.601000
 10
65.239000
 20
208.839000
 10
65.001000
 20
209.150000
 10
64.851000
 20
209.512000
 10
64.800000
 20
209.900000
999
Included file: sideplate.dxf
999
fliphorz:0 flipvert:1 tozero:0 addx:129.70 addy:0.00 scalex:1.00 scaley:1.00 minx:0.00 miny: 0.00 maxx:127.70 maxy:60.50
  0
LWPOLYLINE
 90
5
 70
0
 10
129.700000
 20
60.500000
 10
129.700000
 20
0.000000
 10
174.000000
 20
0.000000
 10
174.000000
 20
60.500000
 10
129.700000
 20
60.500000
  0
LWPOLYLINE
 90
5
 70
0
 10
133.600000
 20
49.500000
 10
133.600000
 20
43.500000
 10
135.200000
 20
43.500000
 10
135.200000
 20
49.500000
 10
133.600000
 20
49.500000
  0
LWPOLYLINE
 90
5
 70
0
 10
133.600000
 20
11.000000
 10
133.600000
 20
5.000000
 10
135.200000
 20
5.000000
 10
135.200000
 20
11.000000
 10
133.600000
 20
11.000000
  0
LWPOLYLINE
 90
25
 70
0
 10
138.700000
 20
55.500000
 10
138.734000
 20
55.241000
 10
138.834000
 20
55.000000
 10
138.993000
 20
54.793000
 10
139.200000
 20
54.634000
 10
139.441000
 20
54.534000
 10
139.700000
 20
54.500000
 10
139.959000
 20
54.534000
 10
140.200000
 20
54.634000
 10
140.407000
 20
54.793000
 10
140.566000
 20
55.000000
 10
140.666000
 20
55.241000
 10
140.700000
 20
55.500000
 10
140.666000
 20
55.759000
 10
140.566000
 20
56.000000
 10
140.407000
 20
56.207000
 10
140.200000
 20
56.366000
 10
139.959000
 20
56.466000
 10
139.700000
 20
56.500000
 10
139.441000
 20
56.466000
 10
139.200000
 20
56.366000
 10
138.993000
 20
56.207000
 10
138.834000
 20
56.000000
 10
138.734000
 20
55.759000
 10
138.700000
 20
55.500000
  0
LWPOLYLINE
 90
5
 70
0
 10
142.200000
 20
50.500000
 10
142.200000
 20
48.900000
 10
148.200000
 20
48.900000
 10
148.200000
 20
50.500000
 10
142.200000
 20
50.500000
  0
LWPOLYLINE
 90
5
 70
0
 10
142.200000
 20
30.500000
 10
142.200000
 20
28.900000
 10
148.200000
 20
28.900000
 10
148.200000
 20
30.500000
 10
142.200000
 20
30.500000
  0
LWPOLYLINE
 90
5
 70
0
 10
142.200000
 20
5.500000
 10
142.200000
 20
3.900000
 10
148.200000
 20
3.900000
 10
148.200000
 20
5.500000
 10
142.200000
 20
5.500000
  0
LWPOLYLINE
 90
5
 70
0
 10
163.000000
 20
50.500000
 10
163.000000
 20
48.900000
 10
169.000000
 20
48.900000
 10
169.000000
 20
50.500000
 10
163.000000
 20
50.500000
  0
LWPOLYLINE
 90
5
 70
0
 10
163.000000
 20
30.500000
 10
163.000000
 20
28.900000
 10
169.000000
 20
28.900000
 10
169.000000
 20
30.500000
 10
163.000000
 20
30.500000
  0
LWPOLYLINE
 90
5
 70
0
 10
163.000000
 20
5.500000
 10
163.000000
 20
3.900000
 10
169.000000
 20
3.900000
 10
169.000000
 20
5.500000
 10
163.000000
 20
5.500000
  0
LWPOLYLINE
 90
25
 70
0
 10
165.000000
 20
55.500000
 10
165.034000
 20
55.241000
 10
165.134000
 20
55.000000
 10
165.293000
 20
54.793000
 10
165.500000
 20
54.634000
 10
165.741000
 20
54.534000
 10
166.000000
 20
54.500000
 10
166.259000
 20
54.534000
 10
166.500000
 20
54.634000
 10
166.707000
 20
54.793000
 10
166.866000
 20
55.000000
 10
166.966000
 20
55.241000
 10
167.000000
 20
55.500000
 10
166.966000
 20
55.759000
 10
166.866000
 20
56.000000
 10
166.707000
 20
56.207000
 10
166.500000
 20
56.366000
 10
166.259000
 20
56.466000
 10
166.000000
 20
56.500000
 10
165.741000
 20
56.466000
 10
165.500000
 20
56.366000
 10
165.293000
 20
56.207000
 10
165.134000
 20
56.000000
 10
165.034000
 20
55.759000
 10
165.000000
 20
55.500000
999
Included file: sideplate.dxf
999
fliphorz:0 flipvert:0 tozero:0 addx:129.70 addy:62.50 scalex:1.00 scaley:1.00 minx:0.00 miny: 0.00 maxx:127.70 maxy:60.50
  0
LWPOLYLINE
 90
5
 70
0
 10
129.700000
 20
62.500000
 10
129.700000
 20
123.000000
 10
174.000000
 20
123.000000
 10
174.000000
 20
62.500000
 10
129.700000
 20
62.500000
  0
LWPOLYLINE
 90
5
 70
0
 10
133.600000
 20
73.500000
 10
133.600000
 20
79.500000
 10
135.200000
 20
79.500000
 10
135.200000
 20
73.500000
 10
133.600000
 20
73.500000
  0
LWPOLYLINE
 90
5
 70
0
 10
133.600000
 20
112.000000
 10
133.600000
 20
118.000000
 10
135.200000
 20
118.000000
 10
135.200000
 20
112.000000
 10
133.600000
 20
112.000000
  0
LWPOLYLINE
 90
25
 70
0
 10
138.700000
 20
67.500000
 10
138.734000
 20
67.759000
 10
138.834000
 20
68.000000
 10
138.993000
 20
68.207000
 10
139.200000
 20
68.366000
 10
139.441000
 20
68.466000
 10
139.700000
 20
68.500000
 10
139.959000
 20
68.466000
 10
140.200000
 20
68.366000
 10
140.407000
 20
68.207000
 10
140.566000
 20
68.000000
 10
140.666000
 20
67.759000
 10
140.700000
 20
67.500000
 10
140.666000
 20
67.241000
 10
140.566000
 20
67.000000
 10
140.407000
 20
66.793000
 10
140.200000
 20
66.634000
 10
139.959000
 20
66.534000
 10
139.700000
 20
66.500000
 10
139.441000
 20
66.534000
 10
139.200000
 20
66.634000
 10
138.993000
 20
66.793000
 10
138.834000
 20
67.000000
 10
138.734000
 20
67.241000
 10
138.700000
 20
67.500000
  0
LWPOLYLINE
 90
5
 70
0
 10
142.200000
 20
72.500000
 10
142.200000
 20
74.100000
 10
148.200000
 20
74.100000
 10
148.200000
 20
72.500000
 10
142.200000
 20
72.500000
  0
LWPOLYLINE
 90
5
 70
0
 10
142.200000
 20
92.500000
 10
142.200000
 20
94.100000
 10
148.200000
 20
94.100000
 10
148.200000
 20
92.500000
 10
142.200000
 20
92.500000
  0
LWPOLYLINE
 90
5
 70
0
 10
142.200000
 20
117.500000
 10
142.200000
 20
119.100000
 10
148.200000
 20
119.100000
 10
148.200000
 20
117.500000
 10
142.200000
 20
117.500000
  0
LWPOLYLINE
 90
5
 70
0
 10
163.000000
 20
72.500000
 10
163.000000
 20
74.100000
 10
169.000000
 20
74.100000
 10
169.000000
 20
72.500000
 10
163.000000
 20
72.500000
  0
LWPOLYLINE
 90
5
 70
0
 10
163.000000
 20
92.500000
 10
163.000000
 20
94.100000
 10
169.000000
 20
94.100000
 10
169.000000
 20
92.500000
 10
163.000000
 20
92.500000
  0
LWPOLYLINE
 90
5
 70
0
 10
163.000000
 20
117.500000
 10
163.000000
 20
119.100000
 10
169.000000
 20
119.100000
 10
169.000000
 20
117.500000
 10
163.000000
 20
117.500000
  0
LWPOLYLINE
 90
25
 70
0
 10
165.000000
 20
67.500000
 10
165.034000
 20
67.759000
 10
165.134000
 20
68.000000
 10
165.293000
 20
68.207000
 10
165.500000
 20
68.366000
 10
165.741000
 20
68.466000
 10
166.000000
 20
68.500000
 10
166.259000
 20
68.466000
 10
166.500000
 20
68.366000
 10
166.707000
 20
68.207000
 10
166.866000
 20
68.000000
 10
166.966000
 20
67.759000
 10
167.000000
 20
67.500000
 10
166.966000
 20
67.241000
 10
166.866000
 20
67.000000
 10
166.707000
 20
66.793000
 10
166.500000
 20
66.634000
 10
166.259000
 20
66.534000
 10
166.000000
 20
66.500000
 10
165.741000
 20
66.534000
 10
165.500000
 20
66.634000
 10
165.293000
 20
66.793000
 10
165.134000
 20
67.000000
 10
165.034000
 20
67.241000
 10
165.000000
 20
67.500000
  0
ENDSEC
  0
SECTION
  2
OBJECTS
  0
DICTIONARY
  0
ENDSEC
  0
EOF
  0
EOF
