999
Commandline: dxfline2poly orig.sideplate.dxf -z
  0
SECTION
  2
HEADER
  9
$ACADVER
  1
AC1015
  9
$INSUNITS
 70
4
  0
ENDSEC
  0
SECTION
  2
BLOCKS
  0
ENDSEC
  0
SECTION
  2
ENTITIES
  0
LWPOLYLINE
 90
5
 70
0
 10
0.000000
 20
0.000000
 10
0.000000
 20
60.500000
 10
44.300000
 20
60.500000
 10
44.300000
 20
0.000000
 10
0.000000
 20
0.000000
  0
LWPOLYLINE
 90
5
 70
0
 10
3.900000
 20
11.000000
 10
3.900000
 20
17.000000
 10
5.500000
 20
17.000000
 10
5.500000
 20
11.000000
 10
3.900000
 20
11.000000
  0
LWPOLYLINE
 90
5
 70
0
 10
3.900000
 20
49.500000
 10
3.900000
 20
55.500000
 10
5.500000
 20
55.500000
 10
5.500000
 20
49.500000
 10
3.900000
 20
49.500000
  0
LWPOLYLINE
 90
25
 70
0
 10
9.000000
 20
5.000000
 10
9.034000
 20
5.259000
 10
9.134000
 20
5.500000
 10
9.293000
 20
5.707000
 10
9.500000
 20
5.866000
 10
9.741000
 20
5.966000
 10
10.000000
 20
6.000000
 10
10.259000
 20
5.966000
 10
10.500000
 20
5.866000
 10
10.707000
 20
5.707000
 10
10.866000
 20
5.500000
 10
10.966000
 20
5.259000
 10
11.000000
 20
5.000000
 10
10.966000
 20
4.741000
 10
10.866000
 20
4.500000
 10
10.707000
 20
4.293000
 10
10.500000
 20
4.134000
 10
10.259000
 20
4.034000
 10
10.000000
 20
4.000000
 10
9.741000
 20
4.034000
 10
9.500000
 20
4.134000
 10
9.293000
 20
4.293000
 10
9.134000
 20
4.500000
 10
9.034000
 20
4.741000
 10
9.000000
 20
5.000000
  0
LWPOLYLINE
 90
5
 70
0
 10
12.500000
 20
10.000000
 10
12.500000
 20
11.600000
 10
18.500000
 20
11.600000
 10
18.500000
 20
10.000000
 10
12.500000
 20
10.000000
  0
LWPOLYLINE
 90
5
 70
0
 10
12.500000
 20
30.000000
 10
12.500000
 20
31.600000
 10
18.500000
 20
31.600000
 10
18.500000
 20
30.000000
 10
12.500000
 20
30.000000
  0
LWPOLYLINE
 90
5
 70
0
 10
12.500000
 20
55.000000
 10
12.500000
 20
56.600000
 10
18.500000
 20
56.600000
 10
18.500000
 20
55.000000
 10
12.500000
 20
55.000000
  0
LWPOLYLINE
 90
5
 70
0
 10
33.300000
 20
10.000000
 10
33.300000
 20
11.600000
 10
39.300000
 20
11.600000
 10
39.300000
 20
10.000000
 10
33.300000
 20
10.000000
  0
LWPOLYLINE
 90
5
 70
0
 10
33.300000
 20
30.000000
 10
33.300000
 20
31.600000
 10
39.300000
 20
31.600000
 10
39.300000
 20
30.000000
 10
33.300000
 20
30.000000
  0
LWPOLYLINE
 90
5
 70
0
 10
33.300000
 20
55.000000
 10
33.300000
 20
56.600000
 10
39.300000
 20
56.600000
 10
39.300000
 20
55.000000
 10
33.300000
 20
55.000000
  0
LWPOLYLINE
 90
25
 70
0
 10
35.300000
 20
5.000000
 10
35.334000
 20
5.259000
 10
35.434000
 20
5.500000
 10
35.593000
 20
5.707000
 10
35.800000
 20
5.866000
 10
36.041000
 20
5.966000
 10
36.300000
 20
6.000000
 10
36.559000
 20
5.966000
 10
36.800000
 20
5.866000
 10
37.007000
 20
5.707000
 10
37.166000
 20
5.500000
 10
37.266000
 20
5.259000
 10
37.300000
 20
5.000000
 10
37.266000
 20
4.741000
 10
37.166000
 20
4.500000
 10
37.007000
 20
4.293000
 10
36.800000
 20
4.134000
 10
36.559000
 20
4.034000
 10
36.300000
 20
4.000000
 10
36.041000
 20
4.034000
 10
35.800000
 20
4.134000
 10
35.593000
 20
4.293000
 10
35.434000
 20
4.500000
 10
35.334000
 20
4.741000
 10
35.300000
 20
5.000000
  0
ENDSEC
  0
SECTION
  2
OBJECTS
  0
DICTIONARY
  0
ENDSEC
  0
EOF
  0
EOF
