999
Commandline: dxfline2poly orig.tubeplate.dxf -z
  0
SECTION
  2
HEADER
  9
$ACADVER
  1
AC1015
  9
$INSUNITS
 70
4
  0
ENDSEC
  0
SECTION
  2
BLOCKS
  0
ENDSEC
  0
SECTION
  2
ENTITIES
  0
LWPOLYLINE
 90
260
 70
0
 10
0.000000
 20
5.500000
 10
0.000000
 20
6.500000
 10
8.500000
 20
6.500000
 10
8.888000
 20
6.551000
 10
9.250000
 20
6.701000
 10
9.561000
 20
6.939000
 10
9.799000
 20
7.250000
 10
9.949000
 20
7.612000
 10
10.000000
 20
8.000000
 10
9.949000
 20
8.388000
 10
9.799000
 20
8.750000
 10
9.561000
 20
9.061000
 10
9.250000
 20
9.299000
 10
8.888000
 20
9.449000
 10
8.500000
 20
9.500000
 10
0.000000
 20
9.500000
 10
0.000000
 20
10.500000
 10
1.550000
 20
11.800000
 10
2.350000
 20
11.800000
 10
2.350000
 20
11.000000
 10
9.250000
 20
11.000000
 10
9.444000
 20
11.026000
 10
9.625000
 20
11.100000
 10
9.780000
 20
11.220000
 10
9.900000
 20
11.375000
 10
9.974000
 20
11.556000
 10
10.000000
 20
11.750000
 10
9.974000
 20
11.944000
 10
9.900000
 20
12.125000
 10
9.780000
 20
12.280000
 10
9.625000
 20
12.400000
 10
9.444000
 20
12.474000
 10
9.250000
 20
12.500000
 10
4.000000
 20
12.500000
 10
4.000000
 20
24.300000
 10
9.250000
 20
24.300000
 10
9.444000
 20
24.326000
 10
9.625000
 20
24.400000
 10
9.780000
 20
24.520000
 10
9.900000
 20
24.675000
 10
9.974000
 20
24.856000
 10
10.000000
 20
25.050000
 10
9.974000
 20
25.244000
 10
9.900000
 20
25.425000
 10
9.780000
 20
25.580000
 10
9.625000
 20
25.700000
 10
9.444000
 20
25.774000
 10
9.250000
 20
25.800000
 10
2.350000
 20
25.800000
 10
2.350000
 20
25.000000
 10
1.550000
 20
25.000000
 10
0.000000
 20
26.300000
 10
0.000000
 20
27.300000
 10
8.500000
 20
27.300000
 10
8.888000
 20
27.351000
 10
9.250000
 20
27.501000
 10
9.561000
 20
27.739000
 10
9.799000
 20
28.050000
 10
9.949000
 20
28.412000
 10
10.000000
 20
28.800000
 10
9.949000
 20
29.188000
 10
9.799000
 20
29.550000
 10
9.561000
 20
29.861000
 10
9.250000
 20
30.099000
 10
8.888000
 20
30.249000
 10
8.500000
 20
30.300000
 10
0.000000
 20
30.300000
 10
0.000000
 20
31.300000
 10
1.550000
 20
32.600000
 10
2.350000
 20
32.600000
 10
2.350000
 20
31.800000
 10
9.250000
 20
31.800000
 10
9.444000
 20
31.826000
 10
9.625000
 20
31.900000
 10
9.780000
 20
32.020000
 10
9.900000
 20
32.175000
 10
9.974000
 20
32.356000
 10
10.000000
 20
32.550000
 10
9.974000
 20
32.744000
 10
9.900000
 20
32.925000
 10
9.780000
 20
33.080000
 10
9.625000
 20
33.200000
 10
9.444000
 20
33.274000
 10
9.250000
 20
33.300000
 10
4.000000
 20
33.300000
 10
4.000000
 20
38.800000
 10
59.350000
 20
38.800000
 10
59.350000
 20
33.550000
 10
59.376000
 20
33.356000
 10
59.450000
 20
33.175000
 10
59.570000
 20
33.020000
 10
59.725000
 20
32.900000
 10
59.906000
 20
32.826000
 10
60.100000
 20
32.800000
 10
60.294000
 20
32.826000
 10
60.475000
 20
32.900000
 10
60.630000
 20
33.020000
 10
60.750000
 20
33.175000
 10
60.824000
 20
33.356000
 10
60.850000
 20
33.550000
 10
60.850000
 20
40.450000
 10
60.050000
 20
40.450000
 10
60.050000
 20
41.250000
 10
61.350000
 20
42.800000
 10
62.350000
 20
42.800000
 10
62.350000
 20
34.300000
 10
62.401000
 20
33.912000
 10
62.551000
 20
33.550000
 10
62.789000
 20
33.239000
 10
63.100000
 20
33.001000
 10
63.462000
 20
32.851000
 10
63.850000
 20
32.800000
 10
64.238000
 20
32.851000
 10
64.600000
 20
33.001000
 10
64.911000
 20
33.239000
 10
65.149000
 20
33.550000
 10
65.299000
 20
33.912000
 10
65.350000
 20
34.300000
 10
65.350000
 20
42.800000
 10
66.350000
 20
42.800000
 10
67.650000
 20
41.250000
 10
67.650000
 20
40.450000
 10
66.850000
 20
40.450000
 10
66.850000
 20
33.550000
 10
66.876000
 20
33.356000
 10
66.950000
 20
33.175000
 10
67.070000
 20
33.020000
 10
67.225000
 20
32.900000
 10
67.406000
 20
32.826000
 10
67.600000
 20
32.800000
 10
67.794000
 20
32.826000
 10
67.975000
 20
32.900000
 10
68.130000
 20
33.020000
 10
68.250000
 20
33.175000
 10
68.324000
 20
33.356000
 10
68.350000
 20
33.550000
 10
68.350000
 20
38.800000
 10
123.700000
 20
38.800000
 10
123.700000
 20
33.300000
 10
118.450000
 20
33.300000
 10
118.256000
 20
33.274000
 10
118.075000
 20
33.200000
 10
117.920000
 20
33.080000
 10
117.800000
 20
32.925000
 10
117.726000
 20
32.744000
 10
117.700000
 20
32.550000
 10
117.726000
 20
32.356000
 10
117.800000
 20
32.175000
 10
117.920000
 20
32.020000
 10
118.075000
 20
31.900000
 10
118.256000
 20
31.826000
 10
118.450000
 20
31.800000
 10
125.350000
 20
31.800000
 10
125.350000
 20
32.600000
 10
126.150000
 20
32.600000
 10
127.700000
 20
31.300000
 10
127.700000
 20
30.300000
 10
119.200000
 20
30.300000
 10
118.812000
 20
30.249000
 10
118.450000
 20
30.099000
 10
118.139000
 20
29.861000
 10
117.901000
 20
29.550000
 10
117.751000
 20
29.188000
 10
117.700000
 20
28.800000
 10
117.751000
 20
28.412000
 10
117.901000
 20
28.050000
 10
118.139000
 20
27.739000
 10
118.450000
 20
27.501000
 10
118.812000
 20
27.351000
 10
119.200000
 20
27.300000
 10
127.700000
 20
27.300000
 10
127.700000
 20
26.300000
 10
126.150000
 20
25.000000
 10
125.350000
 20
25.000000
 10
125.350000
 20
25.800000
 10
118.450000
 20
25.800000
 10
118.256000
 20
25.774000
 10
118.075000
 20
25.700000
 10
117.920000
 20
25.580000
 10
117.800000
 20
25.425000
 10
117.726000
 20
25.244000
 10
117.700000
 20
25.050000
 10
117.726000
 20
24.856000
 10
117.800000
 20
24.675000
 10
117.920000
 20
24.520000
 10
118.075000
 20
24.400000
 10
118.256000
 20
24.326000
 10
118.450000
 20
24.300000
 10
123.700000
 20
24.300000
 10
123.700000
 20
12.500000
 10
118.450000
 20
12.500000
 10
118.256000
 20
12.474000
 10
118.075000
 20
12.400000
 10
117.920000
 20
12.280000
 10
117.800000
 20
12.125000
 10
117.726000
 20
11.944000
 10
117.700000
 20
11.750000
 10
117.726000
 20
11.556000
 10
117.800000
 20
11.375000
 10
117.920000
 20
11.220000
 10
118.075000
 20
11.100000
 10
118.256000
 20
11.026000
 10
118.450000
 20
11.000000
 10
125.350000
 20
11.000000
 10
125.350000
 20
11.800000
 10
126.150000
 20
11.800000
 10
127.700000
 20
10.500000
 10
127.700000
 20
9.500000
 10
119.200000
 20
9.500000
 10
118.812000
 20
9.449000
 10
118.450000
 20
9.299000
 10
118.139000
 20
9.061000
 10
117.901000
 20
8.750000
 10
117.751000
 20
8.388000
 10
117.700000
 20
8.000000
 10
117.751000
 20
7.612000
 10
117.901000
 20
7.250000
 10
118.139000
 20
6.939000
 10
118.450000
 20
6.701000
 10
118.812000
 20
6.551000
 10
119.200000
 20
6.500000
 10
127.700000
 20
6.500000
 10
127.700000
 20
5.500000
 10
126.150000
 20
4.200000
 10
125.350000
 20
4.200000
 10
125.350000
 20
5.000000
 10
118.450000
 20
5.000000
 10
118.256000
 20
4.974000
 10
118.075000
 20
4.900000
 10
117.920000
 20
4.780000
 10
117.800000
 20
4.625000
 10
117.726000
 20
4.444000
 10
117.700000
 20
4.250000
 10
117.726000
 20
4.056000
 10
117.800000
 20
3.875000
 10
117.920000
 20
3.720000
 10
118.075000
 20
3.600000
 10
118.256000
 20
3.526000
 10
118.450000
 20
3.500000
 10
123.700000
 20
3.500000
 10
123.700000
 20
0.000000
 10
4.000000
 20
0.000000
 10
4.000000
 20
3.500000
 10
9.250000
 20
3.500000
 10
9.444000
 20
3.526000
 10
9.625000
 20
3.600000
 10
9.780000
 20
3.720000
 10
9.900000
 20
3.875000
 10
9.974000
 20
4.056000
 10
10.000000
 20
4.250000
 10
9.974000
 20
4.444000
 10
9.900000
 20
4.625000
 10
9.780000
 20
4.780000
 10
9.625000
 20
4.900000
 10
9.444000
 20
4.974000
 10
9.250000
 20
5.000000
 10
2.350000
 20
5.000000
 10
2.350000
 20
4.200000
 10
1.550000
 20
4.200000
 10
0.000000
 20
5.500000
  0
LWPOLYLINE
 90
25
 70
0
 10
14.000000
 20
10.250000
 10
14.179000
 20
11.609000
 10
14.703000
 20
12.875000
 10
15.538000
 20
13.962000
 10
16.625000
 20
14.797000
 10
17.891000
 20
15.321000
 10
19.250000
 20
15.500000
 10
20.609000
 20
15.321000
 10
21.875000
 20
14.797000
 10
22.962000
 20
13.962000
 10
23.797000
 20
12.875000
 10
24.321000
 20
11.609000
 10
24.500000
 20
10.250000
 10
24.321000
 20
8.891000
 10
23.797000
 20
7.625000
 10
22.962000
 20
6.538000
 10
21.875000
 20
5.703000
 10
20.609000
 20
5.179000
 10
19.250000
 20
5.000000
 10
17.891000
 20
5.179000
 10
16.625000
 20
5.703000
 10
15.538000
 20
6.538000
 10
14.703000
 20
7.625000
 10
14.179000
 20
8.891000
 10
14.000000
 20
10.250000
  0
LWPOLYLINE
 90
25
 70
0
 10
23.250000
 20
24.650000
 10
23.494000
 20
26.501000
 10
24.208000
 20
28.225000
 10
25.344000
 20
29.706000
 10
26.825000
 20
30.842000
 10
28.549000
 20
31.556000
 10
30.400000
 20
31.800000
 10
32.251000
 20
31.556000
 10
33.975000
 20
30.842000
 10
35.456000
 20
29.706000
 10
36.592000
 20
28.225000
 10
37.306000
 20
26.501000
 10
37.550000
 20
24.650000
 10
37.306000
 20
22.799000
 10
36.592000
 20
21.075000
 10
35.456000
 20
19.594000
 10
33.975000
 20
18.458000
 10
32.251000
 20
17.744000
 10
30.400000
 20
17.500000
 10
28.549000
 20
17.744000
 10
26.825000
 20
18.458000
 10
25.344000
 20
19.594000
 10
24.208000
 20
21.075000
 10
23.494000
 20
22.799000
 10
23.250000
 20
24.650000
  0
LWPOLYLINE
 90
25
 70
0
 10
36.300000
 20
10.250000
 10
36.479000
 20
11.609000
 10
37.003000
 20
12.875000
 10
37.838000
 20
13.962000
 10
38.925000
 20
14.797000
 10
40.191000
 20
15.321000
 10
41.550000
 20
15.500000
 10
42.909000
 20
15.321000
 10
44.175000
 20
14.797000
 10
45.262000
 20
13.962000
 10
46.097000
 20
12.875000
 10
46.621000
 20
11.609000
 10
46.800000
 20
10.250000
 10
46.621000
 20
8.891000
 10
46.097000
 20
7.625000
 10
45.262000
 20
6.538000
 10
44.175000
 20
5.703000
 10
42.909000
 20
5.179000
 10
41.550000
 20
5.000000
 10
40.191000
 20
5.179000
 10
38.925000
 20
5.703000
 10
37.838000
 20
6.538000
 10
37.003000
 20
7.625000
 10
36.479000
 20
8.891000
 10
36.300000
 20
10.250000
  0
LWPOLYLINE
 90
25
 70
0
 10
45.550000
 20
24.650000
 10
45.794000
 20
26.501000
 10
46.508000
 20
28.225000
 10
47.644000
 20
29.706000
 10
49.125000
 20
30.842000
 10
50.849000
 20
31.556000
 10
52.700000
 20
31.800000
 10
54.551000
 20
31.556000
 10
56.275000
 20
30.842000
 10
57.756000
 20
29.706000
 10
58.892000
 20
28.225000
 10
59.606000
 20
26.501000
 10
59.850000
 20
24.650000
 10
59.606000
 20
22.799000
 10
58.892000
 20
21.075000
 10
57.756000
 20
19.594000
 10
56.275000
 20
18.458000
 10
54.551000
 20
17.744000
 10
52.700000
 20
17.500000
 10
50.849000
 20
17.744000
 10
49.125000
 20
18.458000
 10
47.644000
 20
19.594000
 10
46.508000
 20
21.075000
 10
45.794000
 20
22.799000
 10
45.550000
 20
24.650000
  0
LWPOLYLINE
 90
25
 70
0
 10
58.600000
 20
10.250000
 10
58.779000
 20
11.609000
 10
59.303000
 20
12.875000
 10
60.138000
 20
13.962000
 10
61.225000
 20
14.797000
 10
62.491000
 20
15.321000
 10
63.850000
 20
15.500000
 10
65.209000
 20
15.321000
 10
66.475000
 20
14.797000
 10
67.562000
 20
13.962000
 10
68.397000
 20
12.875000
 10
68.921000
 20
11.609000
 10
69.100000
 20
10.250000
 10
68.921000
 20
8.891000
 10
68.397000
 20
7.625000
 10
67.562000
 20
6.538000
 10
66.475000
 20
5.703000
 10
65.209000
 20
5.179000
 10
63.850000
 20
5.000000
 10
62.491000
 20
5.179000
 10
61.225000
 20
5.703000
 10
60.138000
 20
6.538000
 10
59.303000
 20
7.625000
 10
58.779000
 20
8.891000
 10
58.600000
 20
10.250000
  0
LWPOLYLINE
 90
25
 70
0
 10
67.850000
 20
24.650000
 10
68.094000
 20
26.501000
 10
68.808000
 20
28.225000
 10
69.944000
 20
29.706000
 10
71.425000
 20
30.842000
 10
73.149000
 20
31.556000
 10
75.000000
 20
31.800000
 10
76.851000
 20
31.556000
 10
78.575000
 20
30.842000
 10
80.056000
 20
29.706000
 10
81.192000
 20
28.225000
 10
81.906000
 20
26.501000
 10
82.150000
 20
24.650000
 10
81.906000
 20
22.799000
 10
81.192000
 20
21.075000
 10
80.056000
 20
19.594000
 10
78.575000
 20
18.458000
 10
76.851000
 20
17.744000
 10
75.000000
 20
17.500000
 10
73.149000
 20
17.744000
 10
71.425000
 20
18.458000
 10
69.944000
 20
19.594000
 10
68.808000
 20
21.075000
 10
68.094000
 20
22.799000
 10
67.850000
 20
24.650000
  0
LWPOLYLINE
 90
25
 70
0
 10
80.900000
 20
10.250000
 10
81.079000
 20
11.609000
 10
81.603000
 20
12.875000
 10
82.438000
 20
13.962000
 10
83.525000
 20
14.797000
 10
84.791000
 20
15.321000
 10
86.150000
 20
15.500000
 10
87.509000
 20
15.321000
 10
88.775000
 20
14.797000
 10
89.862000
 20
13.962000
 10
90.697000
 20
12.875000
 10
91.221000
 20
11.609000
 10
91.400000
 20
10.250000
 10
91.221000
 20
8.891000
 10
90.697000
 20
7.625000
 10
89.862000
 20
6.538000
 10
88.775000
 20
5.703000
 10
87.509000
 20
5.179000
 10
86.150000
 20
5.000000
 10
84.791000
 20
5.179000
 10
83.525000
 20
5.703000
 10
82.438000
 20
6.538000
 10
81.603000
 20
7.625000
 10
81.079000
 20
8.891000
 10
80.900000
 20
10.250000
  0
LWPOLYLINE
 90
25
 70
0
 10
90.150000
 20
24.650000
 10
90.394000
 20
26.501000
 10
91.108000
 20
28.225000
 10
92.244000
 20
29.706000
 10
93.725000
 20
30.842000
 10
95.449000
 20
31.556000
 10
97.300000
 20
31.800000
 10
99.151000
 20
31.556000
 10
100.875000
 20
30.842000
 10
102.356000
 20
29.706000
 10
103.492000
 20
28.225000
 10
104.206000
 20
26.501000
 10
104.450000
 20
24.650000
 10
104.206000
 20
22.799000
 10
103.492000
 20
21.075000
 10
102.356000
 20
19.594000
 10
100.875000
 20
18.458000
 10
99.151000
 20
17.744000
 10
97.300000
 20
17.500000
 10
95.449000
 20
17.744000
 10
93.725000
 20
18.458000
 10
92.244000
 20
19.594000
 10
91.108000
 20
21.075000
 10
90.394000
 20
22.799000
 10
90.150000
 20
24.650000
  0
LWPOLYLINE
 90
25
 70
0
 10
103.200000
 20
10.250000
 10
103.379000
 20
11.609000
 10
103.903000
 20
12.875000
 10
104.738000
 20
13.962000
 10
105.825000
 20
14.797000
 10
107.091000
 20
15.321000
 10
108.450000
 20
15.500000
 10
109.809000
 20
15.321000
 10
111.075000
 20
14.797000
 10
112.162000
 20
13.962000
 10
112.997000
 20
12.875000
 10
113.521000
 20
11.609000
 10
113.700000
 20
10.250000
 10
113.521000
 20
8.891000
 10
112.997000
 20
7.625000
 10
112.162000
 20
6.538000
 10
111.075000
 20
5.703000
 10
109.809000
 20
5.179000
 10
108.450000
 20
5.000000
 10
107.091000
 20
5.179000
 10
105.825000
 20
5.703000
 10
104.738000
 20
6.538000
 10
103.903000
 20
7.625000
 10
103.379000
 20
8.891000
 10
103.200000
 20
10.250000
  0
ENDSEC
  0
SECTION
  2
OBJECTS
  0
DICTIONARY
  0
ENDSEC
  0
EOF
  0
EOF
