999
Commandline: dxfline2poly -z -fv tshirt1-laser-raw.dxf
  0
SECTION
  2
HEADER
  9
$ACADVER
  1
AC1015
  9
$INSUNITS
 70
4
  0
ENDSEC
  0
SECTION
  2
BLOCKS
  0
ENDSEC
  0
SECTION
  2
ENTITIES
  0
LWPOLYLINE
 90
36
 70
0
 10
152.200300
 20
21.596900
 10
153.906800
 20
20.943800
 10
155.401800
 20
19.960400
 10
156.685500
 20
18.647000
 10
157.716300
 20
17.060300
 10
158.452500
 20
15.258000
 10
158.894300
 20
13.240300
 10
159.041500
 20
11.007000
 10
158.891300
 20
8.755300
 10
158.440800
 20
6.713300
 10
157.689800
 20
4.880800
 10
156.638500
 20
3.258000
 10
155.340100
 20
1.915500
 10
153.848000
 20
0.925000
 10
152.162100
 20
0.286500
 10
150.282500
 20
0.000000
 10
150.282500
 20
1.711000
 10
150.647400
 20
1.852300
 10
150.953300
 20
2.023300
 10
151.199900
 20
2.223800
 10
151.387500
 20
2.454000
 10
151.525800
 20
2.723800
 10
151.624500
 20
3.043000
 10
151.683800
 20
3.411800
 10
151.703500
 20
3.830000
 10
151.703500
 20
17.679000
 10
151.683800
 20
18.228400
 10
151.624500
 20
18.706800
 10
151.525800
 20
19.113900
 10
151.387500
 20
19.450000
 10
151.199900
 20
19.722800
 10
150.953300
 20
19.940300
 10
150.647400
 20
20.102300
 10
150.282500
 20
20.209000
 10
150.282500
 20
21.920000
 10
152.200300
 20
21.596900
  0
LWPOLYLINE
 90
36
 70
0
 10
33.018500
 20
21.596900
 10
34.725000
 20
20.943800
 10
36.220000
 20
19.960400
 10
37.503700
 20
18.647000
 10
38.534500
 20
17.060300
 10
39.270700
 20
15.258000
 10
39.712500
 20
13.240300
 10
39.859700
 20
11.007000
 10
39.709500
 20
8.755300
 10
39.259000
 20
6.713300
 10
38.508000
 20
4.880800
 10
37.456700
 20
3.258000
 10
36.158300
 20
1.915500
 10
34.666200
 20
0.925000
 10
32.980400
 20
0.286500
 10
31.100700
 20
0.000000
 10
31.100700
 20
1.711000
 10
31.465700
 20
1.852300
 10
31.771500
 20
2.023300
 10
32.018200
 20
2.223800
 10
32.205700
 20
2.454000
 10
32.344000
 20
2.723800
 10
32.442700
 20
3.043000
 10
32.502000
 20
3.411800
 10
32.521700
 20
3.830000
 10
32.521700
 20
17.679000
 10
32.502000
 20
18.228400
 10
32.442700
 20
18.706800
 10
32.344000
 20
19.113900
 10
32.205700
 20
19.450000
 10
32.018200
 20
19.722800
 10
31.771500
 20
19.940300
 10
31.465700
 20
20.102300
 10
31.100700
 20
20.209000
 10
31.100700
 20
21.920000
 10
33.018500
 20
21.596900
  0
LWPOLYLINE
 90
36
 70
0
 10
131.016900
 20
21.596900
 10
132.723400
 20
20.943800
 10
134.218400
 20
19.960400
 10
135.502100
 20
18.647000
 10
136.532900
 20
17.060300
 10
137.269100
 20
15.258000
 10
137.710900
 20
13.240300
 10
137.858100
 20
11.007000
 10
137.707900
 20
8.755300
 10
137.257400
 20
6.713300
 10
136.506400
 20
4.880800
 10
135.455100
 20
3.258000
 10
134.156700
 20
1.915500
 10
132.664600
 20
0.925000
 10
130.978700
 20
0.286500
 10
129.099100
 20
0.000000
 10
129.099100
 20
1.711000
 10
129.464000
 20
1.852300
 10
129.769900
 20
2.023300
 10
130.016500
 20
2.223800
 10
130.204100
 20
2.454000
 10
130.342400
 20
2.723800
 10
130.441100
 20
3.043000
 10
130.500400
 20
3.411800
 10
130.520100
 20
3.830000
 10
130.520100
 20
17.679000
 10
130.500400
 20
18.228400
 10
130.441100
 20
18.706800
 10
130.342400
 20
19.113900
 10
130.204100
 20
19.450000
 10
130.016500
 20
19.722800
 10
129.769900
 20
19.940300
 10
129.464000
 20
20.102300
 10
129.099100
 20
20.209000
 10
129.099100
 20
21.920000
 10
131.016900
 20
21.596900
  0
LWPOLYLINE
 90
36
 70
0
 10
29.821700
 20
20.241000
 10
29.459600
 20
20.110800
 10
29.156200
 20
19.941000
 10
28.911600
 20
19.731800
 10
28.725700
 20
19.483000
 10
28.588800
 20
19.166600
 10
28.491000
 20
18.755300
 10
28.432300
 20
18.249100
 10
28.412700
 20
17.648000
 10
28.412700
 20
3.861000
 10
28.432300
 20
3.429200
 10
28.491000
 20
3.050800
 10
28.588800
 20
2.725700
 10
28.725700
 20
2.454000
 10
28.911600
 20
2.221800
 10
29.156200
 20
2.015300
 10
29.459600
 20
1.834300
 10
29.821700
 20
1.679000
 10
29.821700
 20
0.032000
 10
27.955500
 20
0.305000
 10
26.277000
 20
0.933800
 10
24.786000
 20
1.918400
 10
23.482700
 20
3.259000
 10
22.424800
 20
4.881800
 10
21.669200
 20
6.714300
 10
21.215800
 20
8.756300
 10
21.064700
 20
11.008000
 10
21.212900
 20
13.240800
 10
21.657500
 20
15.258300
 10
22.398400
 20
17.060300
 10
23.435700
 20
18.647000
 10
24.724000
 20
19.960400
 10
26.217700
 20
20.943800
 10
27.917000
 20
21.596900
 10
29.821700
 20
21.920000
 10
29.821700
 20
20.241000
  0
LWPOLYLINE
 90
36
 70
0
 10
149.003500
 20
20.241000
 10
148.641400
 20
20.110800
 10
148.338000
 20
19.941000
 10
148.093400
 20
19.731800
 10
147.907500
 20
19.483000
 10
147.770600
 20
19.166600
 10
147.672800
 20
18.755300
 10
147.614100
 20
18.249100
 10
147.594500
 20
17.648000
 10
147.594500
 20
3.861000
 10
147.614100
 20
3.429200
 10
147.672800
 20
3.050800
 10
147.770600
 20
2.725700
 10
147.907500
 20
2.454000
 10
148.093400
 20
2.221800
 10
148.338000
 20
2.015300
 10
148.641400
 20
1.834300
 10
149.003500
 20
1.679000
 10
149.003500
 20
0.032000
 10
147.137300
 20
0.305000
 10
145.458800
 20
0.933800
 10
143.967800
 20
1.918400
 10
142.664500
 20
3.259000
 10
141.606600
 20
4.881800
 10
140.851000
 20
6.714300
 10
140.397600
 20
8.756300
 10
140.246500
 20
11.008000
 10
140.394700
 20
13.240800
 10
140.839300
 20
15.258300
 10
141.580200
 20
17.060300
 10
142.617500
 20
18.647000
 10
143.905800
 20
19.960400
 10
145.399500
 20
20.943800
 10
147.098800
 20
21.596900
 10
149.003500
 20
21.920000
 10
149.003500
 20
20.241000
  0
LWPOLYLINE
 90
36
 70
0
 10
127.820100
 20
20.241000
 10
127.458000
 20
20.110800
 10
127.154600
 20
19.941000
 10
126.910000
 20
19.731800
 10
126.724100
 20
19.483000
 10
126.587200
 20
19.166600
 10
126.489400
 20
18.755300
 10
126.430700
 20
18.249100
 10
126.411100
 20
17.648000
 10
126.411100
 20
3.861000
 10
126.430700
 20
3.429200
 10
126.489400
 20
3.050800
 10
126.587200
 20
2.725700
 10
126.724100
 20
2.454000
 10
126.910000
 20
2.221800
 10
127.154600
 20
2.015300
 10
127.458000
 20
1.834300
 10
127.820100
 20
1.679000
 10
127.820100
 20
0.032000
 10
125.953900
 20
0.305000
 10
124.275400
 20
0.933800
 10
122.784400
 20
1.918400
 10
121.481100
 20
3.259000
 10
120.423200
 20
4.881800
 10
119.667600
 20
6.714300
 10
119.214200
 20
8.756300
 10
119.063100
 20
11.008000
 10
119.211300
 20
13.240800
 10
119.655900
 20
15.258300
 10
120.396800
 20
17.060300
 10
121.434100
 20
18.647000
 10
122.722400
 20
19.960400
 10
124.216100
 20
20.943800
 10
125.915400
 20
21.596900
 10
127.820100
 20
21.920000
 10
127.820100
 20
20.241000
  0
LWPOLYLINE
 90
166
 70
0
 10
182.276100
 20
21.524100
 10
182.517700
 20
21.488500
 10
182.719600
 20
21.429100
 10
182.881900
 20
21.346000
 10
183.006600
 20
21.237100
 10
183.095700
 20
21.100500
 10
183.149100
 20
20.936100
 10
183.166900
 20
20.744000
 10
183.161900
 20
20.624000
 10
183.146900
 20
20.518000
 10
183.121900
 20
20.426000
 10
183.086900
 20
20.348000
 10
183.038500
 20
20.277500
 10
182.972400
 20
20.209000
 10
182.888500
 20
20.142500
 10
182.786900
 20
20.078000
 10
182.396300
 20
19.882600
 10
182.271700
 20
19.804300
 10
182.158800
 20
19.716100
 10
182.057900
 20
19.618000
 10
181.964800
 20
19.504100
 10
181.875600
 20
19.368300
 10
181.790300
 20
19.210600
 10
181.708900
 20
19.031000
 10
181.694300
 20
19.013500
 10
181.681600
 20
18.992000
 10
181.670800
 20
18.966500
 10
181.628900
 20
18.823600
 10
181.613900
 20
18.778000
 10
176.956900
 20
6.536000
 10
178.002900
 20
5.109000
 10
178.215500
 20
4.823400
 10
178.410400
 20
4.569800
 10
178.587500
 20
4.348000
 10
178.746900
 20
4.158000
 10
178.892500
 20
3.991400
 10
179.028200
 20
3.840800
 10
179.154000
 20
3.706000
 10
179.396900
 20
3.460000
 10
179.459300
 20
3.426100
 10
179.519700
 20
3.388300
 10
179.577800
 20
3.346600
 10
179.690400
 20
3.255500
 10
179.748900
 20
3.214000
 10
179.809400
 20
3.176500
 10
179.871900
 20
3.143000
 10
179.997500
 20
3.050600
 10
180.121100
 20
2.964300
 10
180.243000
 20
2.884100
 10
180.758900
 20
2.572000
 10
181.582900
 20
2.255000
 10
181.746000
 20
2.184600
 10
181.887400
 20
2.100300
 10
182.007000
 20
2.002100
 10
182.104900
 20
1.890000
 10
182.181500
 20
1.766100
 10
182.236200
 20
1.632300
 10
182.269000
 20
1.488600
 10
182.279900
 20
1.335000
 10
182.261100
 20
1.126000
 10
182.204700
 20
0.942800
 10
182.110600
 20
0.785500
 10
181.978900
 20
0.654000
 10
181.813500
 20
0.547900
 10
181.618400
 20
0.467500
 10
181.393500
 20
0.412900
 10
181.138900
 20
0.384000
 10
175.626900
 20
0.416000
 10
175.389200
 20
0.428900
 10
175.183200
 20
0.467500
 10
175.008700
 20
0.531900
 10
174.865900
 20
0.622000
 10
174.755200
 20
0.739800
 10
174.676200
 20
0.887300
 10
174.628700
 20
1.064300
 10
174.612900
 20
1.271000
 10
174.620800
 20
1.393100
 10
174.644700
 20
1.505300
 10
174.684400
 20
1.607600
 10
174.739900
 20
1.700000
 10
174.811300
 20
1.782100
 10
174.898400
 20
1.854300
 10
175.001300
 20
1.916600
 10
175.119900
 20
1.969000
 10
175.689900
 20
2.254000
 10
175.871000
 20
2.333400
 10
176.034400
 20
2.444500
 10
176.180000
 20
2.587400
 10
176.307900
 20
2.762000
 10
176.412000
 20
2.956000
 10
176.486400
 20
3.158000
 10
176.531000
 20
3.368000
 10
176.545900
 20
3.586000
 10
176.542900
 20
3.682400
 10
176.533900
 20
3.780800
 10
176.518900
 20
3.880900
 10
176.497900
 20
3.983000
 10
176.446600
 20
4.193000
 10
176.386900
 20
4.411000
 10
176.253400
 20
4.687600
 10
176.212900
 20
4.776000
 10
176.170400
 20
4.860100
 10
176.121900
 20
4.938300
 10
176.067400
 20
5.010600
 10
176.006900
 20
5.077000
 10
172.318900
 20
10.310000
 10
172.243300
 20
10.403100
 10
172.175700
 20
10.492300
 10
172.115800
 20
10.577600
 10
172.063900
 20
10.659000
 10
172.018300
 20
10.738100
 10
171.976700
 20
10.817200
 10
171.938800
 20
10.896600
 10
171.904900
 20
10.976000
 10
171.876900
 20
11.103000
 10
171.856900
 20
11.230000
 10
171.844900
 20
11.356800
 10
171.840900
 20
11.483000
 10
171.845800
 20
11.630900
 10
171.860700
 20
11.788800
 10
171.885300
 20
11.956400
 10
171.919900
 20
12.134000
 10
171.962900
 20
12.315100
 10
172.011900
 20
12.494300
 10
172.066900
 20
12.671600
 10
172.127900
 20
12.847000
 10
174.160900
 20
18.980300
 10
174.200900
 20
19.111000
 10
174.214900
 20
19.163600
 10
174.224900
 20
19.210300
 10
174.230900
 20
19.251100
 10
174.232900
 20
19.286000
 10
174.230900
 20
19.333500
 10
174.224900
 20
19.381000
 10
174.214900
 20
19.428500
 10
174.200900
 20
19.476000
 10
174.181300
 20
19.521500
 10
174.153600
 20
19.563000
 10
174.117800
 20
19.600500
 10
174.073900
 20
19.634000
 10
174.039400
 20
19.666000
 10
173.998900
 20
19.698000
 10
173.952400
 20
19.730000
 10
173.899900
 20
19.762000
 10
173.841500
 20
19.793500
 10
173.777200
 20
19.825000
 10
173.707000
 20
19.856500
 10
173.630900
 20
19.888000
 10
173.484300
 20
19.969400
 10
173.361400
 20
20.054800
 10
173.262300
 20
20.143900
 10
173.186900
 20
20.237000
 10
173.131300
 20
20.336000
 10
173.091700
 20
20.443000
 10
173.067800
 20
20.558000
 10
173.059900
 20
20.681000
 10
173.078700
 20
20.875100
 10
173.135200
 20
21.045500
 10
173.229200
 20
21.192100
 10
173.360900
 20
21.315000
 10
173.528300
 20
21.411700
 10
173.729400
 20
21.480800
 10
173.964300
 20
21.522200
 10
174.232900
 20
21.536000
 10
181.994900
 20
21.536000
 10
182.276100
 20
21.524100
  0
LWPOLYLINE
 90
118
 70
0
 10
171.511900
 20
21.524100
 10
171.742900
 20
21.488500
 10
171.935900
 20
21.429100
 10
172.090900
 20
21.346000
 10
172.209900
 20
21.237100
 10
172.294900
 20
21.100500
 10
172.345900
 20
20.936100
 10
172.362900
 20
20.744000
 10
172.353900
 20
20.598200
 10
172.326900
 20
20.465800
 10
172.281900
 20
20.346700
 10
172.218900
 20
20.241000
 10
172.135900
 20
20.146300
 10
172.030900
 20
20.061300
 10
171.903900
 20
19.985800
 10
171.754900
 20
19.920000
 10
171.274900
 20
19.793000
 10
171.169900
 20
19.748100
 10
171.078900
 20
19.677500
 10
171.001900
 20
19.581100
 10
170.938900
 20
19.459000
 10
170.889900
 20
19.313100
 10
170.854900
 20
19.145300
 10
170.833900
 20
18.955600
 10
170.826900
 20
18.744000
 10
170.826900
 20
3.239000
 10
170.831900
 20
3.018500
 10
170.846900
 20
2.833800
 10
170.871900
 20
2.684900
 10
170.906900
 20
2.572000
 10
170.963900
 20
2.478500
 10
171.054900
 20
2.389000
 10
171.179900
 20
2.303500
 10
171.338900
 20
2.222000
 10
171.438900
 20
2.186300
 10
171.603900
 20
2.120000
 10
171.662900
 20
2.099000
 10
171.723900
 20
2.080000
 10
171.786900
 20
2.063000
 10
171.936900
 20
2.008600
 10
172.066900
 20
1.940300
 10
172.176900
 20
1.858100
 10
172.266900
 20
1.762000
 10
172.336900
 20
1.654100
 10
172.386900
 20
1.536300
 10
172.416900
 20
1.408600
 10
172.426900
 20
1.271000
 10
172.408900
 20
1.064900
 10
172.354900
 20
0.890500
 10
172.264900
 20
0.747900
 10
172.138900
 20
0.637000
 10
171.974900
 20
0.549900
 10
171.770900
 20
0.478800
 10
171.526900
 20
0.423500
 10
171.242900
 20
0.384000
 10
163.920900
 20
0.384000
 10
163.508900
 20
0.416000
 10
163.240700
 20
0.428900
 10
163.006200
 20
0.467500
 10
162.805200
 20
0.531900
 10
162.637900
 20
0.622000
 10
162.506200
 20
0.739800
 10
162.412100
 20
0.887300
 10
162.355700
 20
1.064300
 10
162.336900
 20
1.271000
 10
162.346800
 20
1.408600
 10
162.376400
 20
1.536300
 10
162.425800
 20
1.654100
 10
162.494900
 20
1.762000
 10
162.584300
 20
1.858100
 10
162.693400
 20
1.940300
 10
162.822300
 20
2.008600
 10
162.970900
 20
2.063000
 10
163.033000
 20
2.080000
 10
163.093100
 20
2.099000
 10
163.151500
 20
2.120000
 10
163.314900
 20
2.186300
 10
163.413900
 20
2.222000
 10
163.571500
 20
2.303100
 10
163.695400
 20
2.388300
 10
163.785500
 20
2.477600
 10
163.841900
 20
2.571000
 10
163.876500
 20
2.681900
 10
163.901200
 20
2.824500
 10
163.916000
 20
2.998900
 10
163.920900
 20
3.205000
 10
163.920900
 20
18.746000
 10
163.916000
 20
18.966200
 10
163.901200
 20
19.150800
 10
163.876500
 20
19.299700
 10
163.841900
 20
19.413000
 10
163.785500
 20
19.506000
 10
163.695400
 20
19.595000
 10
163.571500
 20
19.680000
 10
163.413900
 20
19.761000
 10
163.314900
 20
19.797000
 10
163.151500
 20
19.863600
 10
163.093100
 20
19.884300
 10
163.033000
 20
19.903100
 10
162.970900
 20
19.920000
 10
162.822300
 20
19.974400
 10
162.693400
 20
20.042800
 10
162.584300
 20
20.124900
 10
162.494900
 20
20.221000
 10
162.425800
 20
20.328900
 10
162.376400
 20
20.446800
 10
162.346800
 20
20.574500
 10
162.336900
 20
20.712000
 10
162.354700
 20
20.905100
 10
162.408200
 20
21.072500
 10
162.497200
 20
21.214100
 10
162.621900
 20
21.330000
 10
162.784200
 20
21.420100
 10
162.986200
 20
21.484500
 10
163.227700
 20
21.523100
 10
163.508900
 20
21.536000
 10
171.242900
 20
21.536000
 10
171.511900
 20
21.524100
  0
LWPOLYLINE
 90
93
 70
0
 10
110.364400
 20
3.364000
 10
110.372300
 20
3.114300
 10
110.395900
 20
2.904300
 10
110.435300
 20
2.733800
 10
110.490400
 20
2.603000
 10
110.577700
 20
2.496000
 10
110.712400
 20
2.397000
 10
110.894700
 20
2.306000
 10
111.124400
 20
2.223000
 10
111.171900
 20
2.221000
 10
111.219400
 20
2.215000
 10
111.266900
 20
2.205000
 10
111.417900
 20
2.159300
 10
111.536400
 20
2.128000
 10
111.701000
 20
2.073100
 10
111.845700
 20
2.004500
 10
111.970500
 20
1.922100
 10
112.075400
 20
1.826000
 10
112.158500
 20
1.716100
 10
112.217900
 20
1.592300
 10
112.253500
 20
1.454600
 10
112.265400
 20
1.303000
 10
112.245700
 20
1.095900
 10
112.186400
 20
0.918500
 10
112.087700
 20
0.770900
 10
111.949400
 20
0.653000
 10
111.765800
 20
0.558900
 10
111.530900
 20
0.482800
 10
111.244800
 20
0.424400
 10
110.907400
 20
0.384000
 10
103.487400
 20
0.384000
 10
103.083400
 20
0.416000
 10
102.819900
 20
0.428900
 10
102.589400
 20
0.467500
 10
102.391900
 20
0.531900
 10
102.227400
 20
0.622000
 10
102.098300
 20
0.739800
 10
102.006160
 20
0.887300
 10
101.950850
 20
1.064300
 10
101.932410
 20
1.271000
 10
101.942090
 20
1.408600
 10
101.971150
 20
1.536300
 10
102.019590
 20
1.654100
 10
102.087400
 20
1.762000
 10
102.175100
 20
1.858100
 10
102.282200
 20
1.940300
 10
102.408600
 20
2.008600
 10
102.554400
 20
2.063000
 10
102.615500
 20
2.080000
 10
102.674700
 20
2.099000
 10
102.732000
 20
2.120000
 10
102.892400
 20
2.186300
 10
102.989400
 20
2.222000
 10
103.144300
 20
2.303100
 10
103.265900
 20
2.388300
 10
103.354300
 20
2.477600
 10
103.409400
 20
2.571000
 10
103.443500
 20
2.681900
 10
103.467900
 20
2.824500
 10
103.482500
 20
2.998900
 10
103.487400
 20
3.205000
 10
103.487400
 20
18.746000
 10
103.482500
 20
18.966200
 10
103.467900
 20
19.150800
 10
103.443500
 20
19.299700
 10
103.409400
 20
19.413000
 10
103.354300
 20
19.506000
 10
103.265900
 20
19.595000
 10
103.144300
 20
19.680000
 10
102.989400
 20
19.761000
 10
102.892400
 20
19.797000
 10
102.732000
 20
19.863600
 10
102.674700
 20
19.884300
 10
102.615500
 20
19.903100
 10
102.554400
 20
19.920000
 10
102.408600
 20
19.974400
 10
102.282200
 20
20.042800
 10
102.175100
 20
20.124900
 10
102.087400
 20
20.221000
 10
102.019590
 20
20.328900
 10
101.971150
 20
20.446800
 10
101.942090
 20
20.574500
 10
101.932410
 20
20.712000
 10
101.949900
 20
20.905100
 10
102.002400
 20
21.072500
 10
102.089900
 20
21.214100
 10
102.212400
 20
21.330000
 10
102.371900
 20
21.420100
 10
102.570200
 20
21.484500
 10
102.807300
 20
21.523100
 10
103.083400
 20
21.536000
 10
110.364400
 20
21.536000
 10
110.364400
 20
3.364000
  0
LWPOLYLINE
 90
64
 70
0
 10
8.490000
 20
0.416000
 10
1.584000
 20
0.416000
 10
1.172100
 20
0.448000
 10
0.903900
 20
0.460900
 10
0.669300
 20
0.499500
 10
0.468400
 20
0.563900
 10
0.301000
 20
0.654000
 10
0.169400
 20
0.771800
 10
0.075300
 20
0.919300
 10
0.018900
 20
1.096300
 10
0.000000
 20
1.303000
 10
0.009900
 20
1.440600
 10
0.039500
 20
1.568300
 10
0.088900
 20
1.686100
 10
0.158000
 20
1.794000
 10
0.247400
 20
1.890100
 10
0.356500
 20
1.972300
 10
0.485400
 20
2.040600
 10
0.634000
 20
2.095000
 10
0.696500
 20
2.111600
 10
0.756800
 20
2.130300
 10
0.815000
 20
2.151100
 10
0.978100
 20
2.217300
 10
1.077100
 20
2.253000
 10
1.234700
 20
2.334000
 10
1.358500
 20
2.419000
 10
1.448700
 20
2.508000
 10
1.505000
 20
2.601000
 10
1.539600
 20
2.711800
 10
1.564300
 20
2.854300
 10
1.579100
 20
3.028300
 10
1.584000
 20
3.234000
 10
1.584000
 20
18.749000
 10
1.579100
 20
18.968300
 10
1.564300
 20
19.152000
 10
1.539600
 20
19.300300
 10
1.505000
 20
19.413000
 10
1.448700
 20
19.506100
 10
1.358500
 20
19.595300
 10
1.234700
 20
19.680600
 10
1.077100
 20
19.762000
 10
0.978100
 20
19.797300
 10
0.815000
 20
19.863600
 10
0.756800
 20
19.884300
 10
0.696500
 20
19.903100
 10
0.634000
 20
19.920000
 10
0.485400
 20
19.974400
 10
0.356500
 20
20.042800
 10
0.247400
 20
20.124900
 10
0.158000
 20
20.221000
 10
0.088900
 20
20.328900
 10
0.039500
 20
20.446800
 10
0.009900
 20
20.574500
 10
0.000000
 20
20.712000
 10
0.017900
 20
20.905100
 10
0.071300
 20
21.072500
 10
0.160400
 20
21.214100
 10
0.285000
 20
21.330000
 10
0.447400
 20
21.420100
 10
0.649300
 20
21.484500
 10
0.890900
 20
21.523100
 10
1.172100
 20
21.536000
 10
8.490000
 20
21.536000
 10
8.490000
 20
0.416000
  0
LWPOLYLINE
 90
63
 70
0
 10
10.210700
 20
21.532100
 10
10.634800
 20
21.520300
 10
11.013200
 20
21.500600
 10
11.346000
 20
21.473000
 10
11.653000
 20
21.433100
 10
11.954000
 20
21.377500
 10
12.249000
 20
21.306100
 10
12.538000
 20
21.219000
 10
12.982000
 20
21.029000
 10
13.093500
 20
20.979500
 10
13.205000
 20
20.926000
 10
13.316600
 20
20.868500
 10
13.428000
 20
20.807000
 10
14.612000
 20
20.077900
 10
15.652800
 20
19.188500
 10
16.550500
 20
18.138900
 10
17.305000
 20
16.929000
 10
17.903100
 20
15.586100
 10
18.330300
 20
14.138500
 10
18.586600
 20
12.586100
 10
18.672100
 20
10.929000
 10
18.592600
 20
9.292400
 10
18.354000
 20
7.770500
 10
17.956600
 20
6.363400
 10
17.400000
 20
5.071000
 10
16.691000
 20
3.911300
 10
15.835000
 20
2.902000
 10
14.832000
 20
2.043300
 10
13.682000
 20
1.335000
 10
13.540000
 20
1.258900
 10
13.400000
 20
1.188800
 10
13.262000
 20
1.124400
 10
13.126000
 20
1.066000
 10
12.859800
 20
0.959000
 10
12.601100
 20
0.860000
 10
12.295500
 20
0.756900
 10
11.981800
 20
0.669800
 10
11.660000
 20
0.598400
 10
11.330000
 20
0.543000
 10
10.980600
 20
0.499400
 10
10.599300
 20
0.463800
 10
10.186100
 20
0.435900
 10
9.741100
 20
0.416000
 10
9.741100
 20
2.159000
 10
10.202800
 20
2.268200
 10
10.590100
 20
2.436800
 10
10.902800
 20
2.664700
 10
11.141000
 20
2.952000
 10
11.317400
 20
3.310600
 10
11.443300
 20
3.752500
 10
11.518900
 20
4.277600
 10
11.544000
 20
4.886000
 10
11.544000
 20
17.160000
 10
11.522900
 20
17.817000
 10
11.459500
 20
18.361000
 10
11.353900
 20
18.792000
 10
11.206000
 20
19.110000
 10
10.987700
 20
19.352700
 10
10.670800
 20
19.557800
 10
10.255200
 20
19.725200
 10
9.741100
 20
19.855000
 10
9.741100
 20
21.536000
 10
10.210700
 20
21.532100
  0
LWPOLYLINE
 90
42
 70
0
 10
59.837100
 20
14.688000
 10
51.589100
 20
0.416000
 10
44.544900
 20
0.449000
 10
44.317400
 20
0.452000
 10
44.117400
 20
0.457000
 10
43.945100
 20
0.464000
 10
43.796600
 20
0.474900
 10
43.667900
 20
0.491800
 10
43.559100
 20
0.514400
 10
43.470100
 20
0.543000
 10
43.362100
 20
0.585400
 10
43.260100
 20
0.649800
 10
43.164100
 20
0.736000
 10
43.074100
 20
0.844000
 10
42.998000
 20
0.965500
 10
42.943600
 20
1.093000
 10
42.911000
 20
1.226500
 10
42.900100
 20
1.366000
 10
42.909000
 20
1.490000
 10
42.935600
 20
1.608000
 10
42.980000
 20
1.720000
 10
43.042100
 20
1.826000
 10
43.118500
 20
1.918100
 10
43.204600
 20
1.988500
 10
43.300500
 20
2.037100
 10
43.406100
 20
2.064000
 10
43.977100
 20
2.311000
 10
44.127400
 20
2.373000
 10
44.262100
 20
2.435000
 10
44.325600
 20
2.469800
 10
44.388900
 20
2.512300
 10
44.452100
 20
2.562300
 10
44.515100
 20
2.620000
 10
44.579600
 20
2.686800
 10
44.645900
 20
2.763300
 10
44.714100
 20
2.849300
 10
44.784100
 20
2.945000
 10
45.025100
 20
3.289800
 10
45.117100
 20
3.424000
 10
55.618100
 20
21.536000
 10
59.837100
 20
21.536000
 10
59.837100
 20
14.688000
  0
LWPOLYLINE
 90
66
 70
0
 10
59.837100
 20
5.226000
 10
59.860900
 20
4.682300
 10
59.932100
 20
4.190000
 10
60.050900
 20
3.749300
 10
60.217100
 20
3.360000
 10
60.430900
 20
3.015800
 10
60.692100
 20
2.711000
 10
61.000900
 20
2.445800
 10
61.357100
 20
2.220000
 10
61.591100
 20
2.101800
 10
61.785100
 20
1.999000
 10
61.867200
 20
1.951500
 10
61.939400
 20
1.904000
 10
62.001700
 20
1.856500
 10
62.054100
 20
1.809000
 10
62.097700
 20
1.746900
 10
62.133400
 20
1.686800
 10
62.161200
 20
1.628400
 10
62.181100
 20
1.572000
 10
62.195100
 20
1.513600
 10
62.205100
 20
1.449300
 10
62.211100
 20
1.379100
 10
62.213100
 20
1.303000
 10
62.194300
 20
1.096000
 10
62.137900
 20
0.918800
 10
62.043800
 20
0.771400
 10
61.912100
 20
0.654000
 10
61.738800
 20
0.561900
 10
61.519900
 20
0.491500
 10
61.255300
 20
0.442900
 10
60.945100
 20
0.416000
 10
57.081100
 20
0.448000
 10
56.800900
 20
0.459900
 10
56.562100
 20
0.495500
 10
56.364900
 20
0.554900
 10
56.209100
 20
0.638000
 10
56.091400
 20
0.746900
 10
56.007400
 20
0.883500
 10
55.956900
 20
1.047900
 10
55.940100
 20
1.240000
 10
55.946100
 20
1.374600
 10
55.963900
 20
1.493300
 10
55.993600
 20
1.596100
 10
56.035100
 20
1.683000
 10
56.090600
 20
1.760100
 10
56.161900
 20
1.833300
 10
56.249100
 20
1.902600
 10
56.352100
 20
1.968000
 10
56.369100
 20
1.982600
 10
56.387900
 20
1.995300
 10
56.408600
 20
2.006100
 10
56.454100
 20
2.023900
 10
56.474900
 20
2.034800
 10
56.493600
 20
2.047400
 10
56.510100
 20
2.062000
 10
56.949900
 20
2.313300
 10
57.318400
 20
2.592300
 10
57.615400
 20
2.898800
 10
57.841100
 20
3.233000
 10
58.007400
 20
3.616600
 10
58.126100
 20
4.071300
 10
58.197400
 20
4.597100
 10
58.221100
 20
5.194000
 10
58.221100
 20
9.465000
 10
59.837100
 20
12.217000
 10
59.837100
 20
5.226000
  0
LWPOLYLINE
 90
5
 70
0
 10
69.794600
 20
0.416000
 10
65.296600
 20
0.416000
 10
66.056600
 20
8.864000
 10
69.034600
 20
8.864000
 10
69.794600
 20
0.416000
  0
LWPOLYLINE
 90
60
 70
0
 10
85.238990
 20
21.523100
 10
85.528920
 20
21.484500
 10
85.769490
 20
21.420100
 10
85.960670
 20
21.330000
 10
86.106360
 20
21.212200
 10
86.210430
 20
21.064800
 10
86.272870
 20
20.887700
 10
86.293680
 20
20.681000
 10
86.280800
 20
20.529400
 10
86.242180
 20
20.391800
 10
86.177800
 20
20.267900
 10
86.087690
 20
20.158000
 10
85.975750
 20
20.063900
 10
85.845930
 20
19.987800
 10
85.698240
 20
19.929400
 10
85.532680
 20
19.889000
 10
85.441670
 20
19.861300
 10
85.275670
 20
19.822000
 10
85.184690
 20
19.794000
 10
84.939940
 20
19.711000
 10
84.744680
 20
19.620000
 10
84.598930
 20
19.521000
 10
84.502680
 20
19.414000
 10
84.440560
 20
19.279300
 10
84.396170
 20
19.097300
 10
84.369550
 20
18.867800
 10
84.360680
 20
18.591000
 10
84.360680
 20
0.416000
 10
77.452700
 20
0.416000
 10
77.452700
 20
18.622000
 10
77.444700
 20
18.885300
 10
77.420900
 20
19.105000
 10
77.381200
 20
19.281300
 10
77.325700
 20
19.414000
 10
77.236500
 20
19.521000
 10
77.095900
 20
19.620000
 10
76.904000
 20
19.711000
 10
76.660700
 20
19.794000
 10
76.626700
 20
19.809000
 10
76.588900
 20
19.822000
 10
76.547200
 20
19.833000
 10
76.398900
 20
19.861300
 10
76.116100
 20
19.929400
 10
75.971400
 20
19.987800
 10
75.846600
 20
20.063900
 10
75.741700
 20
20.158000
 10
75.658500
 20
20.267900
 10
75.599200
 20
20.391800
 10
75.563500
 20
20.529400
 10
75.551700
 20
20.681000
 10
75.572400
 20
20.887700
 10
75.634700
 20
21.064800
 10
75.738400
 20
21.212200
 10
75.883700
 20
21.330000
 10
76.072900
 20
21.420100
 10
76.307700
 20
21.484500
 10
76.587900
 20
21.523100
 10
76.913700
 20
21.536000
 10
84.899680
 20
21.536000
 10
85.238990
 20
21.523100
  0
LWPOLYLINE
 90
29
 70
0
 10
88.963170
 20
7.811200
 10
89.140680
 20
7.757800
 10
89.298180
 20
7.668700
 10
89.435680
 20
7.544000
 10
89.547680
 20
7.389600
 10
89.627680
 20
7.211500
 10
89.675680
 20
7.009600
 10
89.691670
 20
6.784000
 10
89.691670
 20
0.416000
 10
85.646680
 20
0.416000
 10
85.646680
 20
2.317000
 10
86.019560
 20
2.567200
 10
86.355170
 20
2.875000
 10
86.653560
 20
3.240300
 10
86.914680
 20
3.663000
 10
87.140980
 20
4.139300
 10
87.333930
 20
4.665000
 10
87.493490
 20
5.240300
 10
87.619680
 20
5.865000
 10
87.776680
 20
6.847000
 10
87.834620
 20
7.058100
 10
87.912420
 20
7.247300
 10
88.010110
 20
7.414600
 10
88.127680
 20
7.560000
 10
88.263180
 20
7.677700
 10
88.414680
 20
7.761800
 10
88.582180
 20
7.812200
 10
88.765680
 20
7.829000
 10
88.963170
 20
7.811200
  0
LWPOLYLINE
 90
29
 70
0
 10
73.234600
 20
7.845200
 10
73.402400
 20
7.797800
 10
73.554100
 20
7.718700
 10
73.689700
 20
7.608000
 10
73.805700
 20
7.465200
 10
73.897700
 20
7.290800
 10
73.965700
 20
7.084700
 10
74.009700
 20
6.847000
 10
74.165700
 20
5.929000
 10
74.305800
 20
5.290300
 10
74.475200
 20
4.705000
 10
74.673800
 20
4.173300
 10
74.901700
 20
3.695000
 10
75.162700
 20
3.270300
 10
75.460900
 20
2.899000
 10
75.796200
 20
2.581300
 10
76.168700
 20
2.317000
 10
76.168700
 20
0.416000
 10
72.123700
 20
0.416000
 10
72.123700
 20
6.847000
 10
72.139600
 20
7.059100
 10
72.187400
 20
7.251300
 10
72.267100
 20
7.423600
 10
72.378700
 20
7.576000
 10
72.516700
 20
7.700700
 10
72.674700
 20
7.789800
 10
72.852700
 20
7.843200
 10
73.050700
 20
7.861000
 10
73.234600
 20
7.845200
  0
LWPOLYLINE
 90
60
 70
0
 10
48.115900
 20
21.525100
 10
48.400100
 20
21.492500
 10
48.630900
 20
21.438100
 10
48.808100
 20
21.362000
 10
48.939800
 20
21.260100
 10
49.033900
 20
21.128500
 10
49.090300
 20
20.967100
 10
49.109100
 20
20.776000
 10
49.103200
 20
20.668000
 10
49.085400
 20
20.566000
 10
49.055700
 20
20.470000
 10
49.014100
 20
20.380000
 10
48.958700
 20
20.293600
 10
48.887400
 20
20.209300
 10
48.800200
 20
20.127100
 10
48.697100
 20
20.047000
 10
48.253100
 20
19.825000
 10
47.883900
 20
19.587100
 10
47.568100
 20
19.317500
 10
47.305900
 20
19.016100
 10
47.097100
 20
18.683000
 10
46.937900
 20
18.308200
 10
46.824100
 20
17.881800
 10
46.755900
 20
17.403700
 10
46.733100
 20
16.874000
 10
46.733100
 20
8.561000
 10
45.117100
 20
5.800000
 10
45.117100
 20
16.906000
 10
45.094400
 20
17.423700
 10
45.026100
 20
17.897800
 10
44.912400
 20
18.328200
 10
44.753100
 20
18.715000
 10
44.546300
 20
19.062100
 10
44.289900
 20
19.373500
 10
43.983800
 20
19.649100
 10
43.628100
 20
19.889000
 10
43.398600
 20
20.035300
 10
43.216100
 20
20.158000
 10
43.141100
 20
20.212500
 10
43.073900
 20
20.265000
 10
43.014600
 20
20.315500
 10
42.963100
 20
20.364000
 10
42.933600
 20
20.397500
 10
42.907900
 20
20.435000
 10
42.886100
 20
20.476500
 10
42.868100
 20
20.522000
 10
42.854100
 20
20.571500
 10
42.844100
 20
20.625000
 10
42.838100
 20
20.682500
 10
42.836100
 20
20.744000
 10
42.857900
 20
20.936100
 10
42.923100
 20
21.100500
 10
43.031900
 20
21.237100
 10
43.184100
 20
21.346000
 10
43.380400
 20
21.429100
 10
43.620100
 20
21.488500
 10
43.903400
 20
21.524100
 10
44.230100
 20
21.536000
 10
47.778100
 20
21.536000
 10
48.115900
 20
21.525100
  0
LWPOLYLINE
 90
46
 70
0
 10
117.450400
 20
15.263000
 10
117.440600
 20
15.012800
 10
117.411200
 20
14.800300
 10
117.362100
 20
14.625300
 10
117.293400
 20
14.488000
 10
117.199300
 20
14.383900
 10
117.073900
 20
14.309500
 10
116.917300
 20
14.264900
 10
116.729400
 20
14.250000
 10
116.594800
 20
14.256900
 10
116.473900
 20
14.277800
 10
116.366800
 20
14.312400
 10
116.273400
 20
14.361000
 10
116.188300
 20
14.430900
 10
116.105200
 20
14.530800
 10
116.023800
 20
14.660500
 10
115.944400
 20
14.820000
 10
115.913300
 20
14.888400
 10
115.882100
 20
14.966800
 10
115.850800
 20
15.055000
 10
115.786000
 20
15.258600
 10
115.707500
 20
15.488100
 10
115.662400
 20
15.612000
 10
115.455400
 20
16.226800
 10
115.216400
 20
16.804000
 10
114.945400
 20
17.343800
 10
114.642400
 20
17.846000
 10
114.313900
 20
18.298300
 10
113.965400
 20
18.689300
 10
113.596900
 20
19.018800
 10
113.208400
 20
19.287000
 10
113.193400
 20
19.288000
 10
113.180400
 20
19.291000
 10
113.169400
 20
19.296000
 10
113.112400
 20
19.350000
 10
112.951300
 20
19.426100
 10
112.786200
 20
19.496300
 10
112.616800
 20
19.560600
 10
112.443400
 20
19.619000
 10
112.252400
 20
19.671600
 10
112.029400
 20
19.718300
 10
111.774400
 20
19.759100
 10
111.487400
 20
19.794000
 10
111.487400
 20
21.536000
 10
117.450400
 20
21.536000
 10
117.450400
 20
15.263000
  0
LWPOLYLINE
 90
100
 70
0
 10
88.306680
 20
44.748600
 10
89.276060
 20
44.468300
 10
90.140680
 20
44.029100
 10
90.900550
 20
43.431000
 10
91.520059
 20
42.710300
 10
91.962548
 20
41.904300
 10
92.228036
 20
41.012800
 10
92.316537
 20
40.036000
 10
92.294412
 20
39.554300
 10
92.228036
 20
39.096000
 10
92.117410
 20
38.661300
 10
91.962548
 20
38.250000
 10
91.762674
 20
37.858400
 10
91.516061
 20
37.482800
 10
91.222680
 20
37.122900
 10
90.851500
 20
36.748200
 10
90.789000
 20
36.690700
 10
90.695550
 20
36.608500
 10
90.633550
 20
36.548000
 10
90.482550
 20
36.422000
 10
90.321560
 20
36.296000
 10
90.235920
 20
36.233900
 10
90.145060
 20
36.174500
 10
90.048930
 20
36.117900
 10
89.703060
 20
35.932800
 10
89.427560
 20
35.791000
 10
89.111310
 20
35.633500
 10
88.742550
 20
35.455000
 10
87.869550
 20
35.077000
 10
87.598050
 20
34.957800
 10
87.365550
 20
34.853300
 10
87.172050
 20
34.763300
 10
87.017560
 20
34.688000
 10
86.580560
 20
34.467000
 10
86.338560
 20
34.306200
 10
86.131550
 20
34.138800
 10
85.959560
 20
33.964700
 10
85.822550
 20
33.784000
 10
85.718000
 20
33.592800
 10
85.643300
 20
33.387300
 10
85.598490
 20
33.167300
 10
85.583550
 20
32.933000
 10
85.605430
 20
32.671800
 10
85.671060
 20
32.434300
 10
85.780430
 20
32.220300
 10
85.933560
 20
32.030000
 10
86.127740
 20
31.861600
 10
86.360300
 20
31.714300
 10
86.631230
 20
31.588100
 10
86.940560
 20
31.483000
 10
86.940560
 20
30.335000
 10
85.887870
 20
30.459800
 10
84.951810
 20
30.729000
 10
84.132360
 20
31.142800
 10
83.429560
 20
31.701000
 10
82.865610
 20
32.380100
 10
82.462810
 20
33.156300
 10
82.221110
 20
34.029600
 10
82.140560
 20
35.000000
 10
82.170430
 20
35.563600
 10
82.260050
 20
36.098300
 10
82.409430
 20
36.604100
 10
82.618550
 20
37.081000
 10
82.886120
 20
37.529000
 10
83.210810
 20
37.948000
 10
83.592610
 20
38.338000
 10
84.031550
 20
38.699000
 10
84.251180
 20
38.838200
 10
84.494060
 20
38.982800
 10
84.760170
 20
39.132700
 10
85.049550
 20
39.288000
 10
85.374430
 20
39.452100
 10
85.746060
 20
39.629300
 10
86.164420
 20
39.819600
 10
86.889180
 20
40.136600
 10
87.128060
 20
40.246300
 10
87.346190
 20
40.352100
 10
87.543560
 20
40.454000
 10
87.723180
 20
40.553300
 10
87.887050
 20
40.651300
 10
88.035180
 20
40.747800
 10
88.167550
 20
40.843000
 10
88.340230
 20
40.981500
 10
88.484310
 20
41.124000
 10
88.599740
 20
41.270500
 10
88.686550
 20
41.421000
 10
88.750440
 20
41.579400
 10
88.796060
 20
41.749500
 10
88.823430
 20
41.931400
 10
88.832560
 20
42.125000
 10
88.808500
 20
42.424300
 10
88.736310
 20
42.692200
 10
88.615990
 20
42.928800
 10
88.447550
 20
43.134000
 10
88.227240
 20
43.311200
 10
87.951300
 20
43.464800
 10
87.619740
 20
43.594700
 10
87.232550
 20
43.701000
 10
87.232550
 20
44.870000
 10
88.306680
 20
44.748600
  0
LWPOLYLINE
 90
66
 70
0
 10
91.328561
 20
35.287600
 10
91.444558
 20
35.250500
 10
91.547555
 20
35.188600
 10
91.637552
 20
35.102000
 10
91.710611
 20
34.995800
 10
91.762811
 20
34.875300
 10
91.794122
 20
34.740300
 10
91.804559
 20
34.591000
 10
91.804559
 20
31.253000
 10
91.796747
 20
31.058200
 10
91.773309
 20
30.890800
 10
91.734247
 20
30.750700
 10
91.679559
 20
30.638000
 10
91.607873
 20
30.550900
 10
91.517801
 20
30.488800
 10
91.409372
 20
30.451500
 10
91.282556
 20
30.439000
 10
91.221994
 20
30.442300
 10
91.165307
 20
30.452300
 10
91.112497
 20
30.468800
 10
91.063546
 20
30.492000
 10
91.017240
 20
30.521300
 10
90.972300
 20
30.557000
 10
90.928740
 20
30.599300
 10
90.886560
 20
30.648000
 10
90.634060
 20
30.991200
 10
90.607550
 20
31.018800
 10
90.577050
 20
31.043700
 10
90.542550
 20
31.066000
 10
90.504050
 20
31.082600
 10
90.461560
 20
31.091500
 10
90.415050
 20
31.092600
 10
90.364560
 20
31.086000
 10
90.030560
 20
31.024000
 10
89.771230
 20
30.915600
 10
89.535300
 20
30.820300
 10
89.322750
 20
30.738100
 10
89.133550
 20
30.669000
 10
88.960370
 20
30.610400
 10
88.794810
 20
30.559500
 10
88.636860
 20
30.516400
 10
88.486550
 20
30.481000
 10
88.393610
 20
30.461400
 10
88.301800
 20
30.444500
 10
88.211110
 20
30.430400
 10
88.031060
 20
30.407200
 10
87.838050
 20
30.375700
 10
87.735560
 20
30.356000
 10
87.735560
 20
31.503000
 10
88.241170
 20
31.664600
 10
88.714060
 20
31.899300
 10
89.154180
 20
32.207100
 10
89.561550
 20
32.588000
 10
89.918050
 20
33.024600
 10
90.205560
 20
33.500500
 10
90.424050
 20
34.015600
 10
90.573560
 20
34.570000
 10
90.619000
 20
34.753700
 10
90.672310
 20
34.908800
 10
90.733480
 20
35.035200
 10
90.802560
 20
35.133000
 10
90.882490
 20
35.206100
 10
90.975300
 20
35.258300
 10
91.080987
 20
35.289600
 10
91.199548
 20
35.300000
 10
91.328561
 20
35.287600
  0
LWPOLYLINE
 90
36
 70
0
 10
44.294300
 20
44.579400
 10
45.422100
 20
44.149800
 10
46.410300
 20
43.502900
 10
47.258600
 20
42.639000
 10
47.939800
 20
41.595100
 10
48.426400
 20
40.409500
 10
48.718300
 20
39.082100
 10
48.815600
 20
37.613000
 10
48.716300
 20
36.131500
 10
48.418400
 20
34.788000
 10
47.921800
 20
33.582500
 10
47.226600
 20
32.515000
 10
46.368600
 20
31.631800
 10
45.382600
 20
30.980000
 10
44.268600
 20
30.559800
 10
43.026600
 20
30.371000
 10
43.026600
 20
31.498000
 10
43.272700
 20
31.590800
 10
43.478900
 20
31.703300
 10
43.645200
 20
31.835300
 10
43.771600
 20
31.987000
 10
43.864800
 20
32.164300
 10
43.931400
 20
32.374000
 10
43.971300
 20
32.616300
 10
43.984600
 20
32.891000
 10
43.984600
 20
42.001000
 10
43.971300
 20
42.362600
 10
43.931400
 20
42.677300
 10
43.864800
 20
42.945100
 10
43.771600
 20
43.166000
 10
43.645200
 20
43.345300
 10
43.478900
 20
43.488300
 10
43.272700
 20
43.594800
 10
43.026600
 20
43.665000
 10
43.026600
 20
44.792000
 10
44.294300
 20
44.579400
  0
LWPOLYLINE
 90
36
 70
0
 10
42.183600
 20
43.686000
 10
41.939900
 20
43.600100
 10
41.735600
 20
43.488300
 10
41.570900
 20
43.350600
 10
41.445600
 20
43.187000
 10
41.353300
 20
42.978800
 10
41.287400
 20
42.708300
 10
41.247800
 20
42.375300
 10
41.234600
 20
41.980000
 10
41.234600
 20
32.912000
 10
41.247800
 20
32.628100
 10
41.287400
 20
32.379300
 10
41.353300
 20
32.165600
 10
41.445600
 20
31.987000
 10
41.570900
 20
31.834000
 10
41.735600
 20
31.698000
 10
41.939900
 20
31.579000
 10
42.183600
 20
31.477000
 10
42.183600
 20
30.392000
 10
40.947300
 20
30.571600
 10
39.835400
 20
30.985300
 10
38.847800
 20
31.633100
 10
37.984600
 20
32.515000
 10
37.283800
 20
33.582500
 10
36.783100
 20
34.788000
 10
36.482800
 20
36.131500
 10
36.382600
 20
37.613000
 10
36.480800
 20
39.082100
 10
36.775100
 20
40.409500
 10
37.265800
 20
41.595100
 10
37.952600
 20
42.639000
 10
38.806200
 20
43.502900
 10
39.795900
 20
44.149800
 10
40.921700
 20
44.579400
 10
42.183600
 20
44.792000
 10
42.183600
 20
43.686000
  0
LWPOLYLINE
 90
7
 70
0
 10
141.633400
 20
39.928000
 10
139.171400
 20
30.627000
 10
137.064400
 20
30.627000
 10
135.854400
 20
35.590000
 10
138.232400
 20
44.536000
 10
140.444400
 20
44.536000
 10
141.633400
 20
39.928000
  0
LWPOLYLINE
 90
87
 70
0
 10
62.444200
 20
32.587000
 10
62.449400
 20
32.423000
 10
62.465000
 20
32.285000
 10
62.490900
 20
32.173000
 10
62.527200
 20
32.087000
 10
62.584900
 20
32.016600
 10
62.673700
 20
31.951500
 10
62.793900
 20
31.891600
 10
62.945200
 20
31.837000
 10
62.976300
 20
31.835700
 10
63.007500
 20
31.831800
 10
63.038800
 20
31.825200
 10
63.176000
 20
31.784500
 10
63.216200
 20
31.774000
 10
63.324700
 20
31.738400
 10
63.420000
 20
31.693800
 10
63.502200
 20
31.639900
 10
63.571200
 20
31.577000
 10
63.625900
 20
31.504400
 10
63.665000
 20
31.422800
 10
63.688400
 20
31.331900
 10
63.696200
 20
31.232000
 10
63.683100
 20
31.095800
 10
63.643700
 20
30.979300
 10
63.578100
 20
30.882300
 10
63.486200
 20
30.805000
 10
63.364700
 20
30.742900
 10
63.209000
 20
30.692500
 10
63.019200
 20
30.653900
 10
62.795200
 20
30.627000
 10
57.874200
 20
30.627000
 10
57.610200
 20
30.648000
 10
57.437600
 20
30.656500
 10
57.286700
 20
30.682000
 10
57.157600
 20
30.724500
 10
57.050200
 20
30.784000
 10
56.965800
 20
30.861300
 10
56.905500
 20
30.958300
 10
56.869300
 20
31.074800
 10
56.857200
 20
31.211000
 10
56.863500
 20
31.301800
 10
56.882500
 20
31.386000
 10
56.914000
 20
31.463800
 10
56.958200
 20
31.535000
 10
57.015600
 20
31.598000
 10
57.085700
 20
31.652000
 10
57.168600
 20
31.697000
 10
57.264200
 20
31.733000
 10
57.342700
 20
31.756500
 10
57.549200
 20
31.837000
 10
57.650000
 20
31.890800
 10
57.729200
 20
31.947000
 10
57.787000
 20
32.005800
 10
57.823200
 20
32.067000
 10
57.845500
 20
32.139900
 10
57.861500
 20
32.233800
 10
57.871000
 20
32.348400
 10
57.874200
 20
32.484000
 10
57.874200
 20
42.701000
 10
57.871000
 20
42.845300
 10
57.861500
 20
42.966300
 10
57.845500
 20
43.063800
 10
57.823200
 20
43.138000
 10
57.787000
 20
43.199300
 10
57.729200
 20
43.258000
 10
57.650000
 20
43.314300
 10
57.549200
 20
43.368000
 10
57.342700
 20
43.448500
 10
57.264200
 20
43.472000
 10
57.168600
 20
43.508100
 10
57.085700
 20
43.553300
 10
57.015600
 20
43.607600
 10
56.958200
 20
43.671000
 10
56.914000
 20
43.741800
 10
56.882500
 20
43.819300
 10
56.863500
 20
43.903300
 10
56.857200
 20
43.994000
 10
56.868700
 20
44.121100
 10
56.903000
 20
44.231300
 10
56.960200
 20
44.324600
 10
57.040200
 20
44.401000
 10
57.144500
 20
44.460100
 10
57.274200
 20
44.502300
 10
57.429500
 20
44.527600
 10
57.610200
 20
44.536000
 10
62.444200
 20
44.536000
 10
62.444200
 20
32.587000
  0
LWPOLYLINE
 90
59
 70
0
 10
136.104400
 20
39.594000
 10
134.206400
 20
32.566000
 10
134.185400
 20
32.358000
 10
134.186700
 20
32.288900
 10
134.190700
 20
32.227800
 10
134.197200
 20
32.174400
 10
134.206400
 20
32.129000
 10
134.220800
 20
32.087100
 10
134.242900
 20
32.045300
 10
134.272800
 20
32.003600
 10
134.310400
 20
31.962000
 10
134.334600
 20
31.939800
 10
134.402700
 20
31.887800
 10
134.743700
 20
31.657100
 10
134.811400
 20
31.599300
 10
134.868700
 20
31.537600
 10
134.915400
 20
31.472000
 10
134.952200
 20
31.403400
 10
134.978400
 20
31.333500
 10
134.994100
 20
31.262400
 10
134.999400
 20
31.190000
 10
134.987600
 20
31.054400
 10
134.952400
 20
30.939800
 10
134.893700
 20
30.846000
 10
134.811400
 20
30.773000
 10
134.701800
 20
30.717000
 10
134.560900
 20
30.674000
 10
134.388800
 20
30.644000
 10
134.185400
 20
30.627000
 10
129.407400
 20
30.648000
 10
129.190900
 20
30.657800
 10
129.000400
 20
30.687300
 10
128.835900
 20
30.736300
 10
128.697400
 20
30.805000
 10
128.588000
 20
30.891500
 10
128.509900
 20
30.995000
 10
128.463000
 20
31.115500
 10
128.447400
 20
31.253000
 10
128.453900
 20
31.352300
 10
128.473400
 20
31.441000
 10
128.505900
 20
31.519300
 10
128.551400
 20
31.587000
 10
128.610400
 20
31.648200
 10
128.682400
 20
31.706800
 10
128.767400
 20
31.762700
 10
128.865400
 20
31.816000
 10
128.953100
 20
31.850100
 10
129.029200
 20
31.889300
 10
129.093600
 20
31.933600
 10
129.146400
 20
31.983000
 10
129.192800
 20
32.044100
 10
129.237900
 20
32.123500
 10
129.281800
 20
32.221100
 10
129.324400
 20
32.337000
 10
129.355000
 20
32.411800
 10
129.407400
 20
32.567000
 10
132.662400
 20
44.536000
 10
134.873400
 20
44.536000
 10
136.104400
 20
39.594000
  0
LWPOLYLINE
 90
57
 70
0
 10
143.261400
 20
33.428000
 10
143.370700
 20
33.083000
 10
143.490400
 20
32.779800
 10
143.620700
 20
32.518500
 10
143.761400
 20
32.299000
 10
143.926100
 20
32.107900
 10
144.127200
 20
31.932500
 10
144.364600
 20
31.772900
 10
144.638400
 20
31.629000
 10
144.743200
 20
31.577000
 10
144.828400
 20
31.525000
 10
144.894200
 20
31.473000
 10
144.940400
 20
31.421000
 10
144.972300
 20
31.365900
 10
144.995200
 20
31.305800
 10
145.008800
 20
31.240500
 10
145.013400
 20
31.170000
 10
145.003000
 20
31.035100
 10
144.971700
 20
30.922300
 10
144.919500
 20
30.831600
 10
144.846400
 20
30.763000
 10
144.747300
 20
30.711400
 10
144.616900
 20
30.671500
 10
144.455300
 20
30.643400
 10
144.262400
 20
30.627000
 10
141.842400
 20
30.648000
 10
141.676000
 20
30.655200
 10
141.531900
 20
30.676800
 10
141.410000
 20
30.712700
 10
141.310400
 20
30.763000
 10
141.233000
 20
30.830300
 10
141.177700
 20
30.917000
 10
141.144500
 20
31.023300
 10
141.133400
 20
31.149000
 10
141.136000
 20
31.218800
 10
141.143700
 20
31.282000
 10
141.156500
 20
31.338800
 10
141.174400
 20
31.389000
 10
141.200600
 20
31.435300
 10
141.237200
 20
31.480300
 10
141.284100
 20
31.523800
 10
141.341400
 20
31.566000
 10
141.388400
 20
31.608000
 10
141.445400
 20
31.650000
 10
141.513700
 20
31.691300
 10
141.766900
 20
31.829000
 10
141.915400
 20
31.929000
 10
142.037900
 20
32.033000
 10
142.134400
 20
32.141000
 10
142.207500
 20
32.254200
 10
142.259700
 20
32.373800
 10
142.291000
 20
32.499700
 10
142.301400
 20
32.632000
 10
142.217400
 20
33.197000
 10
141.466400
 20
36.209000
 10
142.009400
 20
38.280000
 10
143.261400
 20
33.428000
  0
LWPOLYLINE
 90
114
 70
0
 10
153.077300
 20
44.527600
 10
153.234900
 20
44.502300
 10
153.369800
 20
44.460100
 10
153.482100
 20
44.401000
 10
153.571000
 20
44.324600
 10
153.634400
 20
44.231300
 10
153.672500
 20
44.121100
 10
153.685100
 20
43.994000
 10
153.678500
 20
43.903300
 10
153.658400
 20
43.819300
 10
153.625000
 20
43.741800
 10
153.578100
 20
43.671000
 10
153.518500
 20
43.607600
 10
153.445400
 20
43.553300
 10
153.359000
 20
43.508100
 10
153.259100
 20
43.472000
 10
153.176600
 20
43.448500
 10
152.961100
 20
43.368000
 10
152.855400
 20
43.314300
 10
152.772100
 20
43.258000
 10
152.711400
 20
43.199300
 10
152.673200
 20
43.138000
 10
152.650000
 20
43.062500
 10
152.633400
 20
42.961000
 10
152.623500
 20
42.833500
 10
152.620100
 20
42.680000
 10
152.620100
 20
32.504000
 10
152.623500
 20
32.359700
 10
152.633400
 20
32.238800
 10
152.650000
 20
32.141200
 10
152.673200
 20
32.067000
 10
152.711400
 20
32.005800
 10
152.772100
 20
31.947000
 10
152.855400
 20
31.890800
 10
152.961100
 20
31.837000
 10
153.062800
 20
31.799900
 10
153.137300
 20
31.770100
 10
153.217300
 20
31.744100
 10
153.259100
 20
31.733000
 10
153.359000
 20
31.697000
 10
153.445400
 20
31.652000
 10
153.518500
 20
31.598000
 10
153.578100
 20
31.535000
 10
153.625000
 20
31.463800
 10
153.658400
 20
31.386000
 10
153.678500
 20
31.301800
 10
153.685100
 20
31.211000
 10
153.673200
 20
31.075400
 10
153.637200
 20
30.960800
 10
153.577100
 20
30.866900
 10
153.493100
 20
30.794000
 10
153.384300
 20
30.736700
 10
153.248700
 20
30.689800
 10
153.086300
 20
30.653200
 10
152.897100
 20
30.627000
 10
148.098200
 20
30.627000
 10
147.827100
 20
30.648000
 10
147.650300
 20
30.656500
 10
147.495600
 20
30.682000
 10
147.363300
 20
30.724500
 10
147.253200
 20
30.784000
 10
147.166500
 20
30.861300
 10
147.104700
 20
30.958300
 10
147.067500
 20
31.074800
 10
147.055200
 20
31.211000
 10
147.061700
 20
31.301800
 10
147.081200
 20
31.386000
 10
147.113600
 20
31.463800
 10
147.159100
 20
31.535000
 10
147.218100
 20
31.598000
 10
147.289900
 20
31.652000
 10
147.374600
 20
31.697000
 10
147.472100
 20
31.733000
 10
147.553400
 20
31.756500
 10
147.764200
 20
31.837000
 10
147.868000
 20
31.890800
 10
147.949700
 20
31.947000
 10
148.009000
 20
32.005800
 10
148.046200
 20
32.067000
 10
148.068900
 20
32.139900
 10
148.085200
 20
32.233800
 10
148.094900
 20
32.348400
 10
148.098200
 20
32.484000
 10
148.098200
 20
42.701000
 10
148.094900
 20
42.845300
 10
148.085200
 20
42.966300
 10
148.068900
 20
43.063800
 10
148.046200
 20
43.138000
 10
148.009000
 20
43.199300
 10
147.949700
 20
43.258000
 10
147.868000
 20
43.314300
 10
147.764200
 20
43.368000
 10
147.665000
 20
43.405100
 10
147.592000
 20
43.434900
 10
147.513500
 20
43.460900
 10
147.472100
 20
43.472000
 10
147.374600
 20
43.508100
 10
147.289900
 20
43.553300
 10
147.218100
 20
43.607600
 10
147.159100
 20
43.671000
 10
147.113600
 20
43.741800
 10
147.081200
 20
43.819300
 10
147.061700
 20
43.903300
 10
147.055200
 20
43.994000
 10
147.066800
 20
44.121100
 10
147.101900
 20
44.231300
 10
147.160300
 20
44.324600
 10
147.242200
 20
44.401000
 10
147.349200
 20
44.460100
 10
147.482400
 20
44.502300
 10
147.641700
 20
44.527600
 10
147.827100
 20
44.536000
 10
152.897100
 20
44.536000
 10
153.077300
 20
44.527600
  0
LWPOLYLINE
 90
111
 70
0
 10
175.155100
 20
44.528200
 10
175.299500
 20
44.504800
 10
175.420100
 20
44.465700
 10
175.517000
 20
44.411000
 10
175.591400
 20
44.338900
 10
175.644500
 20
44.248800
 10
175.676400
 20
44.140400
 10
175.687000
 20
44.014000
 10
175.681400
 20
43.917900
 10
175.664500
 20
43.830800
 10
175.636400
 20
43.752400
 10
175.597000
 20
43.683000
 10
175.545100
 20
43.620700
 10
175.479500
 20
43.564800
 10
175.400100
 20
43.515200
 10
175.307000
 20
43.472000
 10
175.007000
 20
43.388000
 10
174.941400
 20
43.359000
 10
174.884500
 20
43.313000
 10
174.836400
 20
43.250000
 10
174.797000
 20
43.170000
 10
174.766400
 20
43.073800
 10
174.744500
 20
42.963300
 10
174.731400
 20
42.838300
 10
174.727000
 20
42.699000
 10
174.727000
 20
32.506000
 10
174.731400
 20
32.367400
 10
174.744500
 20
32.244500
 10
174.766400
 20
32.137400
 10
174.797000
 20
32.046000
 10
174.836400
 20
31.969100
 10
174.884500
 20
31.905300
 10
174.941400
 20
31.854600
 10
175.007000
 20
31.817000
 10
175.307000
 20
31.733000
 10
175.400100
 20
31.697000
 10
175.479500
 20
31.652000
 10
175.545100
 20
31.598000
 10
175.597000
 20
31.535000
 10
175.636400
 20
31.462500
 10
175.664500
 20
31.380800
 10
175.681400
 20
31.290000
 10
175.687000
 20
31.190000
 10
175.676400
 20
31.063600
 10
175.644500
 20
30.955500
 10
175.591400
 20
30.865600
 10
175.517000
 20
30.794000
 10
175.420100
 20
30.736700
 10
175.299500
 20
30.689800
 10
175.155100
 20
30.653200
 10
174.987000
 20
30.627000
 10
170.178000
 20
30.627000
 10
169.907000
 20
30.648000
 10
169.730500
 20
30.656500
 10
169.576000
 20
30.682000
 10
169.443500
 20
30.724500
 10
169.333000
 20
30.784000
 10
169.246400
 20
30.861300
 10
169.184500
 20
30.958300
 10
169.147400
 20
31.074800
 10
169.135000
 20
31.211000
 10
169.141500
 20
31.301800
 10
169.161000
 20
31.386000
 10
169.193500
 20
31.463800
 10
169.239000
 20
31.535000
 10
169.298000
 20
31.598000
 10
169.369800
 20
31.652000
 10
169.454400
 20
31.697000
 10
169.552000
 20
31.733000
 10
169.633300
 20
31.756500
 10
169.812900
 20
31.825900
 10
169.845000
 20
31.837000
 10
169.948400
 20
31.890800
 10
170.029800
 20
31.947000
 10
170.089000
 20
32.005800
 10
170.126000
 20
32.067000
 10
170.148800
 20
32.139900
 10
170.165000
 20
32.233800
 10
170.174800
 20
32.348400
 10
170.178000
 20
32.484000
 10
170.178000
 20
42.701000
 10
170.174800
 20
42.845300
 10
170.165000
 20
42.966300
 10
170.148800
 20
43.063800
 10
170.126000
 20
43.138000
 10
170.089000
 20
43.199300
 10
170.029800
 20
43.258000
 10
169.948400
 20
43.314300
 10
169.845000
 20
43.368000
 10
169.744900
 20
43.405100
 10
169.671800
 20
43.434900
 10
169.593300
 20
43.460900
 10
169.552000
 20
43.472000
 10
169.454400
 20
43.508100
 10
169.369800
 20
43.553300
 10
169.298000
 20
43.607600
 10
169.239000
 20
43.671000
 10
169.193500
 20
43.741800
 10
169.161000
 20
43.819300
 10
169.141500
 20
43.903300
 10
169.135000
 20
43.994000
 10
169.146800
 20
44.121100
 10
169.182000
 20
44.231300
 10
169.240800
 20
44.324600
 10
169.323000
 20
44.401000
 10
169.430000
 20
44.460100
 10
169.563000
 20
44.502300
 10
169.722000
 20
44.527600
 10
169.907000
 20
44.536000
 10
174.987000
 20
44.536000
 10
175.155100
 20
44.528200
  0
LWPOLYLINE
 90
114
 70
0
 10
6.216300
 20
44.527600
 10
6.373900
 20
44.502300
 10
6.508800
 20
44.460100
 10
6.621100
 20
44.401000
 10
6.710000
 20
44.324600
 10
6.773400
 20
44.231300
 10
6.811500
 20
44.121100
 10
6.824200
 20
43.994000
 10
6.817500
 20
43.903300
 10
6.797400
 20
43.819300
 10
6.764000
 20
43.741800
 10
6.717100
 20
43.671000
 10
6.657500
 20
43.607600
 10
6.584400
 20
43.553300
 10
6.498000
 20
43.508100
 10
6.398100
 20
43.472000
 10
6.315700
 20
43.448500
 10
6.100200
 20
43.368000
 10
5.994400
 20
43.314300
 10
5.911100
 20
43.258000
 10
5.850400
 20
43.199300
 10
5.812100
 20
43.138000
 10
5.789000
 20
43.062500
 10
5.772400
 20
42.961000
 10
5.762500
 20
42.833500
 10
5.759100
 20
42.680000
 10
5.759100
 20
32.504000
 10
5.762500
 20
32.359700
 10
5.772400
 20
32.238800
 10
5.789000
 20
32.141200
 10
5.812100
 20
32.067000
 10
5.850400
 20
32.005800
 10
5.911100
 20
31.947000
 10
5.994400
 20
31.890800
 10
6.100200
 20
31.837000
 10
6.201800
 20
31.799900
 10
6.276300
 20
31.770100
 10
6.356300
 20
31.744100
 10
6.398100
 20
31.733000
 10
6.498000
 20
31.697000
 10
6.584400
 20
31.652000
 10
6.657500
 20
31.598000
 10
6.717100
 20
31.535000
 10
6.764000
 20
31.463800
 10
6.797400
 20
31.386000
 10
6.817500
 20
31.301800
 10
6.824200
 20
31.211000
 10
6.812100
 20
31.075400
 10
6.776100
 20
30.960800
 10
6.716100
 20
30.866900
 10
6.632100
 20
30.794000
 10
6.523300
 20
30.736700
 10
6.387600
 20
30.689800
 10
6.225300
 20
30.653200
 10
6.036100
 20
30.627000
 10
1.237100
 20
30.627000
 10
0.966100
 20
30.648000
 10
0.789300
 20
30.656500
 10
0.634700
 20
30.682000
 10
0.502300
 20
30.724500
 10
0.392100
 20
30.784000
 10
0.305500
 20
30.861300
 10
0.243600
 20
30.958300
 10
0.206500
 20
31.074800
 10
0.194100
 20
31.211000
 10
0.200600
 20
31.301800
 10
0.220100
 20
31.386000
 10
0.252600
 20
31.463800
 10
0.298200
 20
31.535000
 10
0.357100
 20
31.598000
 10
0.428900
 20
31.652000
 10
0.513600
 20
31.697000
 10
0.611200
 20
31.733000
 10
0.692400
 20
31.756500
 10
0.903100
 20
31.837000
 10
1.007000
 20
31.890800
 10
1.088600
 20
31.947000
 10
1.148000
 20
32.005800
 10
1.185100
 20
32.067000
 10
1.207900
 20
32.139900
 10
1.224100
 20
32.233800
 10
1.233900
 20
32.348400
 10
1.237100
 20
32.484000
 10
1.237100
 20
42.701000
 10
1.233900
 20
42.845300
 10
1.224100
 20
42.966300
 10
1.207900
 20
43.063800
 10
1.185100
 20
43.138000
 10
1.148000
 20
43.199300
 10
1.088600
 20
43.258000
 10
1.007000
 20
43.314300
 10
0.903100
 20
43.368000
 10
0.804000
 20
43.405100
 10
0.731000
 20
43.434900
 10
0.652500
 20
43.460900
 10
0.611200
 20
43.472000
 10
0.513600
 20
43.508100
 10
0.428900
 20
43.553300
 10
0.357100
 20
43.607600
 10
0.298200
 20
43.671000
 10
0.252600
 20
43.741800
 10
0.220100
 20
43.819300
 10
0.200600
 20
43.903300
 10
0.194100
 20
43.994000
 10
0.205800
 20
44.121100
 10
0.240900
 20
44.231300
 10
0.299300
 20
44.324600
 10
0.381100
 20
44.401000
 10
0.488200
 20
44.460100
 10
0.621400
 20
44.502300
 10
0.780700
 20
44.527600
 10
0.966100
 20
44.536000
 10
6.036100
 20
44.536000
 10
6.216300
 20
44.527600
  0
LWPOLYLINE
 90
114
 70
0
 10
182.154900
 20
44.527600
 10
182.309500
 20
44.502300
 10
182.441900
 20
44.460100
 10
182.552000
 20
44.401000
 10
182.638600
 20
44.324600
 10
182.700500
 20
44.231300
 10
182.737600
 20
44.121100
 10
182.750000
 20
43.994000
 10
182.743400
 20
43.903300
 10
182.723800
 20
43.819300
 10
182.691000
 20
43.741800
 10
182.645000
 20
43.671000
 10
182.586500
 20
43.607600
 10
182.515000
 20
43.553300
 10
182.430500
 20
43.508100
 10
182.333000
 20
43.472000
 10
182.249000
 20
43.448500
 10
182.020000
 20
43.368000
 10
181.925300
 20
43.314300
 10
181.850300
 20
43.258000
 10
181.794800
 20
43.199300
 10
181.759000
 20
43.138000
 10
181.736300
 20
43.062500
 10
181.720000
 20
42.961000
 10
181.710300
 20
42.833500
 10
181.707000
 20
42.680000
 10
181.707000
 20
32.504000
 10
181.710300
 20
32.359700
 10
181.720000
 20
32.238800
 10
181.736300
 20
32.141200
 10
181.759000
 20
32.067000
 10
181.796100
 20
32.005800
 10
181.855500
 20
31.947000
 10
181.937100
 20
31.890800
 10
182.041000
 20
31.837000
 10
182.140200
 20
31.799900
 10
182.213200
 20
31.770100
 10
182.291700
 20
31.744100
 10
182.333000
 20
31.733000
 10
182.430500
 20
31.697000
 10
182.515000
 20
31.652000
 10
182.586500
 20
31.598000
 10
182.645000
 20
31.535000
 10
182.691000
 20
31.463800
 10
182.723800
 20
31.386000
 10
182.743400
 20
31.301800
 10
182.750000
 20
31.211000
 10
182.738300
 20
31.075400
 10
182.703000
 20
30.960800
 10
182.644300
 20
30.866900
 10
182.562000
 20
30.794000
 10
182.455400
 20
30.736700
 10
182.322500
 20
30.689800
 10
182.163400
 20
30.653200
 10
181.978000
 20
30.627000
 10
177.146000
 20
30.627000
 10
176.875000
 20
30.648000
 10
176.709100
 20
30.656500
 10
176.565300
 20
30.682000
 10
176.443600
 20
30.724500
 10
176.344000
 20
30.784000
 10
176.266600
 20
30.861300
 10
176.211300
 20
30.958300
 10
176.178100
 20
31.074800
 10
176.167000
 20
31.211000
 10
176.172800
 20
31.314100
 10
176.190300
 20
31.406500
 10
176.219300
 20
31.488100
 10
176.260000
 20
31.559000
 10
176.312300
 20
31.618600
 10
176.376300
 20
31.667500
 10
176.451800
 20
31.705600
 10
176.539000
 20
31.733000
 10
176.870000
 20
31.857000
 10
176.937500
 20
31.885800
 10
176.996000
 20
31.930000
 10
177.045500
 20
31.989800
 10
177.086000
 20
32.065000
 10
177.118000
 20
32.154500
 10
177.140800
 20
32.257000
 10
177.154500
 20
32.372500
 10
177.159000
 20
32.501000
 10
177.159000
 20
36.920000
 10
175.561000
 20
36.920000
 10
175.561000
 20
38.046000
 10
177.159000
 20
38.046000
 10
177.159000
 20
42.700000
 10
177.154500
 20
42.829700
 10
177.140800
 20
42.947800
 10
177.118000
 20
43.054200
 10
177.086000
 20
43.149000
 10
177.045500
 20
43.227800
 10
176.996000
 20
43.287000
 10
176.937500
 20
43.326800
 10
176.870000
 20
43.347000
 10
176.539000
 20
43.472000
 10
176.460300
 20
43.508700
 10
176.389300
 20
43.555800
 10
176.325800
 20
43.613200
 10
176.270000
 20
43.681000
 10
176.225000
 20
43.756200
 10
176.192800
 20
43.836800
 10
176.173500
 20
43.922700
 10
176.167000
 20
44.014000
 10
176.178100
 20
44.140400
 10
176.211300
 20
44.248800
 10
176.266600
 20
44.338900
 10
176.344000
 20
44.411000
 10
176.443600
 20
44.465700
 10
176.565300
 20
44.504800
 10
176.709100
 20
44.528200
 10
176.875000
 20
44.536000
 10
181.978000
 20
44.536000
 10
182.154900
 20
44.527600
  0
LWPOLYLINE
 90
59
 70
0
 10
31.912600
 20
44.527600
 10
32.103600
 20
44.502300
 10
32.262100
 20
44.460100
 10
32.387900
 20
44.401000
 10
32.483700
 20
44.323300
 10
32.552100
 20
44.226000
 10
32.593200
 20
44.109300
 10
32.606900
 20
43.973000
 10
32.598400
 20
43.873100
 10
32.572900
 20
43.782500
 10
32.530400
 20
43.701100
 10
32.470900
 20
43.629000
 10
32.397500
 20
43.566900
 10
32.312400
 20
43.516500
 10
32.215500
 20
43.477900
 10
32.106900
 20
43.451000
 10
32.018600
 20
43.425700
 10
31.937100
 20
43.406800
 10
31.876900
 20
43.389000
 10
31.716100
 20
43.334000
 10
31.587900
 20
43.274000
 10
31.492200
 20
43.209000
 10
31.428900
 20
43.139000
 10
31.387800
 20
43.050400
 10
31.358400
 20
42.930500
 10
31.340800
 20
42.779400
 10
31.334900
 20
42.597000
 10
31.334900
 20
30.648000
 10
26.808900
 20
30.648000
 10
26.808900
 20
42.618000
 10
26.803700
 20
42.791200
 10
26.788100
 20
42.935800
 10
26.762200
 20
43.051700
 10
26.725900
 20
43.139000
 10
26.667400
 20
43.209000
 10
26.574900
 20
43.274000
 10
26.448400
 20
43.334000
 10
26.287900
 20
43.389000
 10
26.240600
 20
43.406800
 10
26.182900
 20
43.420000
 10
26.077500
 20
43.441200
 10
25.928900
 20
43.477900
 10
25.833900
 20
43.516500
 10
25.751900
 20
43.566900
 10
25.682900
 20
43.629000
 10
25.628200
 20
43.701100
 10
25.589200
 20
43.782500
 10
25.565700
 20
43.873100
 10
25.557900
 20
43.973000
 10
25.571600
 20
44.109300
 10
25.612600
 20
44.226000
 10
25.681100
 20
44.323300
 10
25.776900
 20
44.401000
 10
25.901400
 20
44.460100
 10
26.055900
 20
44.502300
 10
26.240400
 20
44.527600
 10
26.454900
 20
44.536000
 10
31.688900
 20
44.536000
 10
31.912600
 20
44.527600
  0
LWPOLYLINE
 90
29
 70
0
 10
24.071600
 20
35.540600
 10
24.182600
 20
35.509300
 10
24.283100
 20
35.457100
 10
24.372900
 20
35.384000
 10
24.449500
 20
35.290100
 10
24.510100
 20
35.175300
 10
24.555000
 20
35.039600
 10
24.583900
 20
34.883000
 10
24.683900
 20
34.278000
 10
24.772800
 20
33.857600
 10
24.880400
 20
33.472500
 10
25.006800
 20
33.122600
 10
25.151900
 20
32.808000
 10
25.318200
 20
32.528100
 10
25.508100
 20
32.283500
 10
25.721700
 20
32.074100
 10
25.958900
 20
31.900000
 10
25.958900
 20
30.648000
 10
23.336900
 20
30.648000
 10
23.336900
 20
34.883000
 10
23.347500
 20
35.022500
 10
23.379100
 20
35.149000
 10
23.432000
 20
35.262500
 10
23.505900
 20
35.363000
 10
23.597000
 20
35.445300
 10
23.701400
 20
35.504000
 10
23.819000
 20
35.539300
 10
23.949900
 20
35.551000
 10
24.071600
 20
35.540600
  0
LWPOLYLINE
 90
29
 70
0
 10
34.381500
 20
35.519300
 10
34.495100
 20
35.484000
 10
34.596000
 20
35.425300
 10
34.683900
 20
35.343000
 10
34.755700
 20
35.241200
 10
34.806900
 20
35.123800
 10
34.837600
 20
34.990700
 10
34.847900
 20
34.842000
 10
34.847900
 20
30.648000
 10
32.161900
 20
30.648000
 10
32.161900
 20
31.900000
 10
32.417200
 20
32.065400
 10
32.647100
 20
32.268500
 10
32.851700
 20
32.509400
 10
33.030900
 20
32.788000
 10
33.186000
 20
33.101300
 10
33.318200
 20
33.447300
 10
33.427500
 20
33.825800
 10
33.513900
 20
34.237000
 10
33.620900
 20
34.884000
 10
33.657800
 20
35.022900
 10
33.707700
 20
35.147500
 10
33.770300
 20
35.257900
 10
33.845900
 20
35.354000
 10
33.933000
 20
35.431400
 10
34.030100
 20
35.486800
 10
34.137500
 20
35.519900
 10
34.254900
 20
35.531000
 10
34.381500
 20
35.519300
  0
LWPOLYLINE
 90
89
 70
0
 10
113.655600
 20
44.527600
 10
113.844700
 20
44.502300
 10
113.999700
 20
44.460100
 10
114.120700
 20
44.401000
 10
114.212100
 20
44.323300
 10
114.277400
 20
44.226000
 10
114.316600
 20
44.109300
 10
114.329700
 20
43.973000
 10
114.321800
 20
43.873600
 10
114.298400
 20
43.783300
 10
114.259300
 20
43.702100
 10
114.204700
 20
43.630000
 10
114.135600
 20
43.566600
 10
114.053400
 20
43.512500
 10
113.958100
 20
43.467600
 10
113.849600
 20
43.432000
 10
113.736400
 20
43.400500
 10
113.672200
 20
43.380800
 10
113.640900
 20
43.374300
 10
113.609700
 20
43.370300
 10
113.578700
 20
43.369000
 10
113.427300
 20
43.314400
 10
113.307200
 20
43.254800
 10
113.218300
 20
43.189900
 10
113.160700
 20
43.120000
 10
113.124300
 20
43.032700
 10
113.098400
 20
42.916800
 10
113.082800
 20
42.772200
 10
113.077700
 20
42.599000
 10
113.077700
 20
30.648000
 10
108.529700
 20
30.648000
 10
108.258700
 20
30.669000
 10
108.081800
 20
30.677500
 10
107.927100
 20
30.703000
 10
107.794800
 20
30.745500
 10
107.684700
 20
30.805000
 10
107.598000
 20
30.881000
 10
107.536200
 20
30.974000
 10
107.499000
 20
31.084000
 10
107.486700
 20
31.211000
 10
107.493200
 20
31.309800
 10
107.512700
 20
31.398300
 10
107.545200
 20
31.476300
 10
107.590700
 20
31.544000
 10
107.649200
 20
31.603900
 10
107.720900
 20
31.658500
 10
107.805700
 20
31.707900
 10
107.903600
 20
31.752000
 10
107.984200
 20
31.775800
 10
108.163500
 20
31.845300
 10
108.195700
 20
31.856000
 10
108.299100
 20
31.909300
 10
108.380400
 20
31.965300
 10
108.439600
 20
32.023800
 10
108.476700
 20
32.085000
 10
108.499800
 20
32.157900
 10
108.516400
 20
32.251800
 10
108.526300
 20
32.366400
 10
108.529700
 20
32.502000
 10
108.529700
 20
42.702000
 10
108.525700
 20
42.837800
 10
108.513900
 20
42.954300
 10
108.494200
 20
43.051300
 10
108.466700
 20
43.129000
 10
108.425100
 20
43.194600
 10
108.362600
 20
43.256300
 10
108.279200
 20
43.314100
 10
108.124900
 20
43.391500
 10
108.022500
 20
43.434900
 10
107.944500
 20
43.460900
 10
107.903600
 20
43.472000
 10
107.805700
 20
43.508100
 10
107.720900
 20
43.553300
 10
107.649200
 20
43.607600
 10
107.590700
 20
43.671000
 10
107.545200
 20
43.741800
 10
107.512700
 20
43.819300
 10
107.493200
 20
43.903300
 10
107.486700
 20
43.994000
 10
107.498300
 20
44.121100
 10
107.533400
 20
44.231300
 10
107.591800
 20
44.324600
 10
107.673700
 20
44.401000
 10
107.780700
 20
44.460100
 10
107.913900
 20
44.502300
 10
108.073200
 20
44.527600
 10
108.258700
 20
44.536000
 10
113.432700
 20
44.536000
 10
113.655600
 20
44.527600
  0
LWPOLYLINE
 90
62
 70
0
 10
20.171300
 20
33.819000
 10
20.186900
 20
33.460400
 10
20.233800
 20
33.135800
 10
20.311900
 20
32.844900
 10
20.421300
 20
32.588000
 10
20.562000
 20
32.361100
 10
20.734000
 20
32.160300
 10
20.937500
 20
31.985600
 10
21.172300
 20
31.837000
 10
21.393500
 20
31.723800
 10
21.454300
 20
31.691000
 10
21.508500
 20
31.659600
 10
21.556000
 20
31.628300
 10
21.597000
 20
31.597100
 10
21.631300
 20
31.566000
 10
21.660100
 20
31.524700
 10
21.683500
 20
31.484800
 10
21.701600
 20
31.446200
 10
21.714300
 20
31.409000
 10
21.723500
 20
31.370600
 10
21.730000
 20
31.328300
 10
21.734000
 20
31.282100
 10
21.735300
 20
31.232000
 10
21.722900
 20
31.095800
 10
21.685800
 20
30.979300
 10
21.623900
 20
30.882300
 10
21.537300
 20
30.805000
 10
21.423300
 20
30.744200
 10
21.279300
 20
30.697800
 10
21.105300
 20
30.665700
 10
20.901300
 20
30.648000
 10
18.355300
 20
30.669000
 10
18.170900
 20
30.676800
 10
18.013800
 20
30.700300
 10
17.883900
 20
30.739300
 10
17.781300
 20
30.794000
 10
17.703800
 20
30.865600
 10
17.648500
 20
30.955500
 10
17.615300
 20
31.063600
 10
17.604300
 20
31.190000
 10
17.608200
 20
31.278800
 10
17.620000
 20
31.357000
 10
17.639700
 20
31.424800
 10
17.667300
 20
31.482000
 10
17.704000
 20
31.532800
 10
17.751000
 20
31.581000
 10
17.808500
 20
31.626800
 10
17.876300
 20
31.670000
 10
17.899000
 20
31.688500
 10
17.956500
 20
31.714500
 10
17.980300
 20
31.732000
 10
18.269800
 20
31.897600
 10
18.512300
 20
32.081500
 10
18.707800
 20
32.283600
 10
18.856300
 20
32.504000
 10
18.966100
 20
32.757000
 10
19.044500
 20
33.057000
 10
19.091600
 20
33.404000
 10
19.107300
 20
33.798000
 10
19.107300
 20
36.614000
 10
20.171300
 20
38.429000
 10
20.171300
 20
33.819000
  0
LWPOLYLINE
 90
178
 70
0
 10
118.155000
 20
44.799800
 10
118.414200
 20
44.778200
 10
118.659000
 20
44.742300
 10
118.889700
 20
44.692000
 10
119.107800
 20
44.629000
 10
119.314200
 20
44.554200
 10
119.508800
 20
44.467600
 10
119.691700
 20
44.369000
 10
119.824500
 20
44.272900
 10
119.952200
 20
44.171500
 10
120.074500
 20
44.064900
 10
120.191700
 20
43.953000
 10
120.304000
 20
43.837200
 10
120.411200
 20
43.718800
 10
120.513000
 20
43.597700
 10
120.609700
 20
43.474000
 10
120.688600
 20
43.359500
 10
120.758400
 20
43.245000
 10
120.819100
 20
43.130500
 10
120.870700
 20
43.016000
 10
120.911800
 20
42.905400
 10
120.941200
 20
42.802500
 10
120.958800
 20
42.707400
 10
120.964700
 20
42.620000
 10
120.964700
 20
42.579000
 10
120.963300
 20
42.567200
 10
120.952800
 20
42.535700
 10
120.943700
 20
42.516000
 10
120.927300
 20
42.454200
 10
120.899100
 20
42.393800
 10
120.859300
 20
42.334700
 10
120.807700
 20
42.277000
 10
120.749500
 20
42.222800
 10
120.690100
 20
42.175300
 10
120.629500
 20
42.134300
 10
120.567700
 20
42.100000
 10
120.528900
 20
42.097500
 10
120.494700
 20
42.090000
 10
120.466100
 20
42.081800
 10
120.442700
 20
42.079000
 10
120.411600
 20
42.080300
 10
120.380400
 20
42.084300
 10
120.349100
 20
42.090800
 10
120.317700
 20
42.100000
 10
120.286200
 20
42.111800
 10
120.254900
 20
42.126000
 10
120.223700
 20
42.142800
 10
120.192700
 20
42.162000
 10
120.152000
 20
42.184300
 10
120.113900
 20
42.209300
 10
120.078500
 20
42.236800
 10
120.045700
 20
42.267000
 10
119.921700
 20
42.391000
 10
119.816700
 20
42.527000
 10
119.795700
 20
42.551000
 10
119.774900
 20
42.571000
 10
119.754200
 20
42.587000
 10
119.733700
 20
42.599000
 10
119.712700
 20
42.601800
 10
119.679800
 20
42.614400
 10
119.648300
 20
42.619400
 10
119.628700
 20
42.620000
 10
119.579900
 20
42.614800
 10
119.537700
 20
42.599300
 10
119.501900
 20
42.573300
 10
119.472600
 20
42.537000
 10
119.449900
 20
42.490300
 10
119.433600
 20
42.433000
 10
119.423900
 20
42.365300
 10
119.420700
 20
42.287000
 10
119.420700
 20
40.205000
 10
119.402400
 20
39.938500
 10
119.347600
 20
39.679800
 10
119.256400
 20
39.428900
 10
119.128700
 20
39.186000
 10
118.968900
 20
38.956900
 10
118.780400
 20
38.748500
 10
118.563300
 20
38.560900
 10
118.317700
 20
38.394000
 10
118.275700
 20
38.370500
 10
118.192400
 20
38.313500
 10
118.150700
 20
38.290000
 10
117.982800
 20
38.210300
 10
117.812400
 20
38.137000
 10
117.639300
 20
38.070300
 10
117.463700
 20
38.010000
 10
117.271100
 20
37.953200
 10
117.047400
 20
37.897800
 10
116.792600
 20
37.843700
 10
116.506700
 20
37.791000
 10
116.423400
 20
37.788500
 10
116.339700
 20
37.781000
 10
116.256700
 20
37.767500
 10
116.173700
 20
37.749000
 10
116.354800
 20
37.697600
 10
116.524400
 20
37.647500
 10
116.682300
 20
37.598600
 10
116.828700
 20
37.551000
 10
116.965900
 20
37.503400
 10
117.096700
 20
37.454500
 10
117.220900
 20
37.404400
 10
117.338700
 20
37.353000
 10
117.489900
 20
37.290600
 10
117.630700
 20
37.228300
 10
117.760900
 20
37.166100
 10
117.880700
 20
37.104000
 10
117.993800
 20
37.038900
 10
118.104400
 20
36.968500
 10
118.212400
 20
36.892900
 10
118.317700
 20
36.812000
 10
118.358700
 20
36.770000
 10
118.614000
 20
36.545100
 10
118.837900
 20
36.286300
 10
119.030500
 20
35.993600
 10
119.191700
 20
35.667000
 10
119.319000
 20
35.318300
 10
119.409900
 20
34.959300
 10
119.464500
 20
34.589800
 10
119.482700
 20
34.210000
 10
119.457300
 20
33.753900
 10
119.381200
 20
33.322500
 10
119.254300
 20
32.915900
 10
119.076700
 20
32.534000
 10
118.848700
 20
32.182100
 10
118.569900
 20
31.865300
 10
118.240200
 20
31.583600
 10
117.794200
 20
31.295300
 10
117.723700
 20
31.254000
 10
117.686900
 20
31.234300
 10
117.648700
 20
31.217300
 10
117.608900
 20
31.202800
 10
117.567700
 20
31.191000
 10
117.268100
 20
31.047600
 10
116.951400
 20
30.930300
 10
116.617600
 20
30.839100
 10
116.266700
 20
30.774000
 10
115.864100
 20
30.726800
 10
115.374400
 20
30.690000
 10
114.797600
 20
30.663800
 10
114.133700
 20
30.648000
 10
113.883700
 20
30.648000
 10
113.883700
 20
31.788000
 10
114.190200
 20
31.897400
 10
114.441900
 20
32.018500
 10
114.638700
 20
32.151400
 10
114.780600
 20
32.296000
 10
114.881300
 20
32.466100
 10
114.953100
 20
32.676500
 10
114.996300
 20
32.927100
 10
115.010700
 20
33.218000
 10
115.010700
 20
35.913000
 10
114.995000
 20
36.231700
 10
114.947900
 20
36.503800
 10
114.869500
 20
36.729200
 10
114.759700
 20
36.908000
 10
114.611200
 20
37.047900
 10
114.415700
 20
37.156800
 10
114.173200
 20
37.234400
 10
113.883700
 20
37.281000
 10
113.883700
 20
38.392000
 10
114.164700
 20
38.445800
 10
114.402700
 20
38.544000
 10
114.597600
 20
38.686800
 10
114.749700
 20
38.874000
 10
114.863800
 20
39.111100
 10
114.945400
 20
39.403300
 10
114.994300
 20
39.750600
 10
115.010700
 20
40.153000
 10
115.010700
 20
41.893000
 10
115.058100
 20
42.546300
 10
115.200400
 20
43.122300
 10
115.437600
 20
43.620800
 10
115.769700
 20
44.042000
 10
116.186700
 20
44.376700
 10
116.677700
 20
44.615700
 10
117.242700
 20
44.759200
 10
117.881700
 20
44.807000
 10
118.155000
 20
44.799800
  0
LWPOLYLINE
 90
32
 70
0
 10
104.786600
 20
34.894900
 10
104.892900
 20
34.867500
 10
104.979700
 20
34.821900
 10
105.046900
 20
34.758000
 10
105.097200
 20
34.673300
 10
105.133100
 20
34.565000
 10
105.154700
 20
34.433300
 10
105.161900
 20
34.278000
 10
105.161900
 20
30.648000
 10
101.030890
 20
30.648000
 10
101.030890
 20
31.879000
 10
101.598020
 20
31.972200
 10
102.110400
 20
32.126800
 10
102.568000
 20
32.342700
 10
102.970900
 20
32.620000
 10
103.324200
 20
32.964700
 10
103.633100
 20
33.383800
 10
103.897700
 20
33.877200
 10
104.117900
 20
34.445000
 10
104.120400
 20
34.468500
 10
104.127900
 20
34.497000
 10
104.141400
 20
34.525500
 10
104.159900
 20
34.549000
 10
104.203100
 20
34.645000
 10
104.248900
 20
34.724000
 10
104.297100
 20
34.786000
 10
104.347900
 20
34.831000
 10
104.406500
 20
34.863000
 10
104.478100
 20
34.885800
 10
104.563000
 20
34.899400
 10
104.660900
 20
34.904000
 10
104.786600
 20
34.894900
  0
LWPOLYLINE
 90
59
 70
0
 10
164.008000
 20
44.527600
 10
164.199000
 20
44.502300
 10
164.357500
 20
44.460100
 10
164.483300
 20
44.401000
 10
164.579100
 20
44.323300
 10
164.647500
 20
44.226000
 10
164.688600
 20
44.109300
 10
164.702300
 20
43.973000
 10
164.693800
 20
43.873100
 10
164.668300
 20
43.782500
 10
164.625800
 20
43.701100
 10
164.566300
 20
43.629000
 10
164.492900
 20
43.566900
 10
164.407800
 20
43.516500
 10
164.310900
 20
43.477900
 10
164.202300
 20
43.451000
 10
164.114000
 20
43.425700
 10
164.032500
 20
43.406800
 10
163.972300
 20
43.389000
 10
163.811500
 20
43.334000
 10
163.683300
 20
43.274000
 10
163.587500
 20
43.209000
 10
163.524300
 20
43.139000
 10
163.483100
 20
43.050400
 10
163.453800
 20
42.930500
 10
163.436200
 20
42.779400
 10
163.430300
 20
42.597000
 10
163.430300
 20
30.648000
 10
158.904300
 20
30.648000
 10
158.904300
 20
42.618000
 10
158.899100
 20
42.791200
 10
158.883500
 20
42.935800
 10
158.857600
 20
43.051700
 10
158.821300
 20
43.139000
 10
158.762800
 20
43.209000
 10
158.670300
 20
43.274000
 10
158.543800
 20
43.334000
 10
158.383300
 20
43.389000
 10
158.336000
 20
43.406800
 10
158.278300
 20
43.420000
 10
158.172900
 20
43.441200
 10
158.024300
 20
43.477900
 10
157.929300
 20
43.516500
 10
157.847300
 20
43.566900
 10
157.778300
 20
43.629000
 10
157.723600
 20
43.701100
 10
157.684500
 20
43.782500
 10
157.661100
 20
43.873100
 10
157.653300
 20
43.973000
 10
157.667000
 20
44.109300
 10
157.708000
 20
44.226000
 10
157.776500
 20
44.323300
 10
157.872300
 20
44.401000
 10
157.996800
 20
44.460100
 10
158.151300
 20
44.502300
 10
158.335800
 20
44.527600
 10
158.550300
 20
44.536000
 10
163.784300
 20
44.536000
 10
164.008000
 20
44.527600
  0
LWPOLYLINE
 90
29
 70
0
 10
156.167000
 20
35.540600
 10
156.278000
 20
35.509300
 10
156.378500
 20
35.457100
 10
156.468300
 20
35.384000
 10
156.544800
 20
35.290100
 10
156.605500
 20
35.175300
 10
156.650300
 20
35.039600
 10
156.679300
 20
34.883000
 10
156.779300
 20
34.278000
 10
156.868100
 20
33.857600
 10
156.975800
 20
33.472500
 10
157.102200
 20
33.122600
 10
157.247300
 20
32.808000
 10
157.413600
 20
32.528100
 10
157.603500
 20
32.283500
 10
157.817100
 20
32.074100
 10
158.054300
 20
31.900000
 10
158.054300
 20
30.648000
 10
155.432300
 20
30.648000
 10
155.432300
 20
34.883000
 10
155.442800
 20
35.022500
 10
155.474500
 20
35.149000
 10
155.527300
 20
35.262500
 10
155.601300
 20
35.363000
 10
155.692400
 20
35.445300
 10
155.796800
 20
35.504000
 10
155.914400
 20
35.539300
 10
156.045300
 20
35.551000
 10
156.167000
 20
35.540600
  0
LWPOLYLINE
 90
61
 70
0
 10
100.160900
 20
30.648000
 10
95.612890
 20
30.648000
 10
95.341900
 20
30.669000
 10
95.165020
 20
30.677500
 10
95.010400
 20
30.703000
 10
94.878030
 20
30.745500
 10
94.767890
 20
30.805000
 10
94.681270
 20
30.882300
 10
94.619390
 20
30.979300
 10
94.582270
 20
31.095800
 10
94.569890
 20
31.232000
 10
94.576390
 20
31.322300
 10
94.595900
 20
31.406300
 10
94.628400
 20
31.483800
 10
94.673900
 20
31.555000
 10
94.732460
 20
31.617900
 10
94.804150
 20
31.671800
 10
94.888960
 20
31.716500
 10
94.986900
 20
31.752000
 10
95.067390
 20
31.775800
 10
95.246770
 20
31.845300
 10
95.278890
 20
31.856000
 10
95.382330
 20
31.909800
 10
95.463650
 20
31.966000
 10
95.522840
 20
32.024800
 10
95.559900
 20
32.086000
 10
95.583090
 20
32.158500
 10
95.599650
 20
32.252000
 10
95.609580
 20
32.366500
 10
95.612890
 20
32.502000
 10
95.612890
 20
42.702000
 10
95.609580
 20
42.846300
 10
95.599650
 20
42.967300
 10
95.583090
 20
43.064800
 10
95.559900
 20
43.139000
 10
95.522840
 20
43.200200
 10
95.463650
 20
43.258800
 10
95.382330
 20
43.314700
 10
95.278890
 20
43.368000
 10
95.178770
 20
43.405100
 10
95.105770
 20
43.434900
 10
95.027780
 20
43.460900
 10
94.986900
 20
43.472000
 10
94.888960
 20
43.508100
 10
94.804150
 20
43.553300
 10
94.732460
 20
43.607600
 10
94.673900
 20
43.671000
 10
94.628400
 20
43.741800
 10
94.595900
 20
43.819300
 10
94.576390
 20
43.903300
 10
94.569890
 20
43.994000
 10
94.581580
 20
44.121100
 10
94.616650
 20
44.231300
 10
94.675090
 20
44.324600
 10
94.756890
 20
44.401000
 10
94.863960
 20
44.460100
 10
94.997160
 20
44.502300
 10
95.156460
 20
44.527600
 10
95.341900
 20
44.536000
 10
100.160900
 20
44.536000
 10
100.160900
 20
30.648000
  0
LWPOLYLINE
 90
29
 70
0
 10
166.476800
 20
35.519300
 10
166.590500
 20
35.484000
 10
166.691300
 20
35.425300
 10
166.779300
 20
35.343000
 10
166.851000
 20
35.241200
 10
166.902300
 20
35.123800
 10
166.933000
 20
34.990700
 10
166.943300
 20
34.842000
 10
166.943300
 20
30.648000
 10
164.257300
 20
30.648000
 10
164.257300
 20
31.900000
 10
164.512600
 20
32.065400
 10
164.742500
 20
32.268500
 10
164.947100
 20
32.509400
 10
165.126300
 20
32.788000
 10
165.281300
 20
33.101300
 10
165.413500
 20
33.447300
 10
165.522800
 20
33.825800
 10
165.609300
 20
34.237000
 10
165.716300
 20
34.884000
 10
165.753200
 20
35.022900
 10
165.803000
 20
35.147500
 10
165.865700
 20
35.257900
 10
165.941300
 20
35.354000
 10
166.028300
 20
35.431400
 10
166.125500
 20
35.486800
 10
166.232800
 20
35.519900
 10
166.350300
 20
35.531000
 10
166.476800
 20
35.519300
  0
LWPOLYLINE
 90
40
 70
0
 10
20.171300
 20
40.056000
 10
14.756300
 20
30.648000
 10
10.129900
 20
30.669700
 10
9.847900
 20
30.675200
 10
9.734300
 20
30.680000
 10
9.636800
 20
30.686900
 10
9.552300
 20
30.697800
 10
9.480800
 20
30.712500
 10
9.422300
 20
30.731000
 10
9.351200
 20
30.759200
 10
9.284000
 20
30.801800
 10
9.220700
 20
30.858700
 10
9.161300
 20
30.930000
 10
9.111000
 20
31.010000
 10
9.075000
 20
31.094000
 10
9.053500
 20
31.182000
 10
9.046300
 20
31.274000
 10
9.052100
 20
31.355600
 10
9.069800
 20
31.433300
 10
9.099100
 20
31.507100
 10
9.140300
 20
31.577000
 10
9.190500
 20
31.637400
 10
9.247300
 20
31.683500
 10
9.310500
 20
31.715400
 10
9.380300
 20
31.733000
 10
9.756300
 20
31.896000
 10
9.855000
 20
31.937000
 10
9.943300
 20
31.978000
 10
9.985200
 20
32.001100
 10
10.027000
 20
32.029300
 10
10.068700
 20
32.062600
 10
10.110300
 20
32.101000
 10
10.152900
 20
32.144800
 10
10.196800
 20
32.195000
 10
10.241900
 20
32.251800
 10
10.390000
 20
32.460800
 10
10.507300
 20
32.632000
 10
17.401300
 20
44.536000
 10
20.171300
 20
44.536000
 10
20.171300
 20
40.056000
  0
LWPOLYLINE
 90
69
 70
0
 10
80.072300
 20
44.528200
 10
80.233500
 20
44.504800
 10
80.369800
 20
44.465700
 10
80.481300
 20
44.411000
 10
80.567900
 20
44.341900
 10
80.629800
 20
44.259800
 10
80.666900
 20
44.164400
 10
80.679300
 20
44.056000
 10
80.674700
 20
43.967100
 10
80.661000
 20
43.887300
 10
80.638200
 20
43.816600
 10
80.606300
 20
43.755000
 10
80.561300
 20
43.698200
 10
80.499500
 20
43.642800
 10
80.420800
 20
43.588700
 10
80.325300
 20
43.536000
 10
80.301500
 20
43.533500
 10
80.272300
 20
43.526000
 10
80.243800
 20
43.512500
 10
80.220300
 20
43.494000
 10
80.112900
 20
43.449300
 10
80.019800
 20
43.398000
 10
79.940900
 20
43.340300
 10
79.876300
 20
43.276000
 10
79.821200
 20
43.198300
 10
79.770000
 20
43.101000
 10
79.722700
 20
42.984300
 10
79.660800
 20
42.788500
 10
76.803300
 20
30.648000
 10
72.697300
 20
30.648000
 10
72.447300
 20
31.649000
 10
74.322300
 20
39.892000
 10
72.030300
 20
39.892000
 10
71.759300
 20
41.144000
 10
74.587300
 20
41.144000
 10
74.920300
 20
42.610000
 10
74.941300
 20
42.899000
 10
74.937300
 20
42.987500
 10
74.925500
 20
43.067000
 10
74.905800
 20
43.137500
 10
74.878300
 20
43.199000
 10
74.842000
 20
43.254900
 10
74.795300
 20
43.309500
 10
74.738000
 20
43.362900
 10
74.670300
 20
43.415000
 10
74.649300
 20
43.417800
 10
74.617800
 20
43.431700
 10
74.597300
 20
43.447200
 10
74.587300
 20
43.457000
 10
74.285600
 20
43.641800
 10
74.253300
 20
43.663000
 10
74.223800
 20
43.695300
 10
74.198300
 20
43.730300
 10
74.176800
 20
43.767800
 10
74.159300
 20
43.808000
 10
74.145700
 20
43.851600
 10
74.136000
 20
43.900500
 10
74.130200
 20
43.954600
 10
74.128300
 20
44.014000
 10
74.140000
 20
44.132300
 10
74.175300
 20
44.236300
 10
74.234000
 20
44.325800
 10
74.316300
 20
44.401000
 10
74.416800
 20
44.460100
 10
74.530300
 20
44.502300
 10
74.656800
 20
44.527600
 10
74.796300
 20
44.536000
 10
79.886300
 20
44.536000
 10
80.072300
 20
44.528200
  0
LWPOLYLINE
 90
63
 70
0
 10
71.320000
 20
44.528200
 10
71.468000
 20
44.504800
 10
71.596500
 20
44.465700
 10
71.705300
 20
44.411000
 10
71.791900
 20
44.341900
 10
71.853800
 20
44.259800
 10
71.890900
 20
44.164400
 10
71.903300
 20
44.056000
 10
71.897500
 20
43.974500
 10
71.880300
 20
43.897000
 10
71.851500
 20
43.823500
 10
71.811300
 20
43.754000
 10
71.760800
 20
43.688000
 10
71.701300
 20
43.626000
 10
71.632800
 20
43.568000
 10
71.555300
 20
43.514000
 10
71.227300
 20
43.368000
 10
71.092400
 20
43.297900
 10
70.974000
 20
43.213800
 10
70.872000
 20
43.115500
 10
70.786300
 20
43.003000
 10
70.718900
 20
42.879700
 10
70.670800
 20
42.749800
 10
70.641900
 20
42.613200
 10
70.632300
 20
42.470000
 10
70.632300
 20
42.335000
 10
70.633600
 20
42.299100
 10
70.637500
 20
42.264500
 10
70.644100
 20
42.231100
 10
70.653300
 20
42.199000
 10
70.655800
 20
42.134300
 10
70.663300
 20
42.064000
 10
70.685400
 20
41.948300
 10
70.695300
 20
41.907000
 10
72.510300
 20
35.335000
 10
71.989300
 20
33.228000
 10
69.686300
 20
41.636000
 10
69.574900
 20
42.006400
 10
69.451800
 20
42.324800
 10
69.316900
 20
42.590900
 10
69.170300
 20
42.805000
 10
68.996500
 20
42.987300
 10
68.779300
 20
43.159300
 10
68.518500
 20
43.320800
 10
68.214300
 20
43.472000
 10
68.097000
 20
43.525400
 10
67.998300
 20
43.581500
 10
67.918000
 20
43.640400
 10
67.856300
 20
43.702000
 10
67.810300
 20
43.767100
 10
67.777500
 20
43.837500
 10
67.757800
 20
43.913100
 10
67.751300
 20
43.994000
 10
67.765600
 20
44.112500
 10
67.808500
 20
44.218000
 10
67.880100
 20
44.310500
 10
67.980300
 20
44.390000
 10
68.103100
 20
44.453900
 10
68.241500
 20
44.499500
 10
68.395600
 20
44.526900
 10
68.565300
 20
44.536000
 10
71.152300
 20
44.536000
 10
71.320000
 20
44.528200
  0
LWPOLYLINE
 90
60
 70
0
 10
12.481700
 20
44.528800
 10
12.668800
 20
44.507300
 10
12.820600
 20
44.471300
 10
12.937300
 20
44.421000
 10
13.024300
 20
44.353800
 10
13.086500
 20
44.267000
 10
13.123800
 20
44.160800
 10
13.136300
 20
44.035000
 10
13.132300
 20
43.963900
 10
13.120500
 20
43.896800
 10
13.100800
 20
43.833400
 10
13.073300
 20
43.774000
 10
13.036600
 20
43.717200
 10
12.989500
 20
43.661800
 10
12.932100
 20
43.607700
 10
12.864300
 20
43.555000
 10
12.572300
 20
43.409000
 10
12.329300
 20
43.252600
 10
12.121500
 20
43.075500
 10
11.948800
 20
42.877600
 10
11.811300
 20
42.659000
 10
11.706300
 20
42.412600
 10
11.631300
 20
42.132500
 10
11.586300
 20
41.818600
 10
11.571300
 20
41.471000
 10
11.571300
 20
36.009000
 10
10.507300
 20
34.196000
 10
10.507300
 20
41.492000
 10
10.492300
 20
41.831800
 10
10.447300
 20
42.143000
 10
10.372300
 20
42.425800
 10
10.267300
 20
42.680000
 10
10.131000
 20
42.907800
 10
9.962000
 20
43.112300
 10
9.760500
 20
43.293300
 10
9.526300
 20
43.451000
 10
9.375000
 20
43.547300
 10
9.255300
 20
43.628000
 10
9.205800
 20
43.663900
 10
9.161500
 20
43.698500
 10
9.122300
 20
43.731900
 10
9.088300
 20
43.764000
 10
9.068600
 20
43.785900
 10
9.051500
 20
43.810500
 10
9.037100
 20
43.837900
 10
9.025300
 20
43.868000
 10
9.016500
 20
43.900800
 10
9.010300
 20
43.936000
 10
9.006500
 20
43.973800
 10
9.005300
 20
44.014000
 10
9.019600
 20
44.140400
 10
9.062500
 20
44.248800
 10
9.134100
 20
44.338900
 10
9.234300
 20
44.411000
 10
9.363600
 20
44.465700
 10
9.521500
 20
44.504800
 10
9.708100
 20
44.528200
 10
9.923300
 20
44.536000
 10
12.259300
 20
44.536000
 10
12.481700
 20
44.528800
  0
LWPOLYLINE
 90
51
 70
0
 10
103.064500
 20
40.251900
 10
103.176400
 20
40.218800
 10
103.264500
 20
40.163400
 10
103.328900
 20
40.086000
 10
103.375300
 20
39.976800
 10
103.408400
 20
39.827300
 10
103.428300
 20
39.637300
 10
103.434900
 20
39.407000
 10
103.434900
 20
35.569000
 10
103.428300
 20
35.338800
 10
103.408400
 20
35.149000
 10
103.375300
 20
34.999800
 10
103.328900
 20
34.891000
 10
103.264500
 20
34.813100
 10
103.176400
 20
34.757500
 10
103.064500
 20
34.724100
 10
102.928900
 20
34.713000
 10
102.801800
 20
34.722100
 10
102.694400
 20
34.749500
 10
102.606800
 20
34.795100
 10
102.538900
 20
34.859000
 10
102.481500
 20
34.947700
 10
102.425400
 20
35.067800
 10
102.370500
 20
35.219200
 10
102.316900
 20
35.402000
 10
102.244000
 20
35.668600
 10
102.151100
 20
35.905300
 10
102.038500
 20
36.112100
 10
101.905890
 20
36.289000
 10
101.744330
 20
36.447300
 10
101.544640
 20
36.599000
 10
101.306830
 20
36.744300
 10
101.030890
 20
36.883000
 10
101.030890
 20
38.072000
 10
101.272030
 20
38.150200
 10
101.489400
 20
38.259800
 10
101.683020
 20
38.400700
 10
101.852900
 20
38.573000
 10
102.002080
 20
38.781400
 10
102.132700
 20
39.031800
 10
102.244600
 20
39.323900
 10
102.337900
 20
39.658000
 10
102.392100
 20
39.812600
 10
102.448900
 20
39.942500
 10
102.508100
 20
40.047600
 10
102.569900
 20
40.128000
 10
102.640000
 20
40.187100
 10
102.723200
 20
40.229300
 10
102.819500
 20
40.254600
 10
102.928900
 20
40.263000
 10
103.064500
 20
40.251900
  0
LWPOLYLINE
 90
85
 70
0
 10
86.375560
 20
43.722000
 10
86.172230
 20
43.674800
 10
85.979300
 20
43.617300
 10
85.796750
 20
43.549300
 10
85.624550
 20
43.471000
 10
85.460180
 20
43.381000
 10
85.301050
 20
43.278000
 10
85.147180
 20
43.162000
 10
84.998560
 20
43.033000
 10
84.852550
 20
42.887000
 10
84.573560
 20
42.588500
 10
84.320550
 20
42.277000
 10
84.093560
 20
41.952500
 10
83.892560
 20
41.615000
 10
83.714120
 20
41.261400
 10
83.553800
 20
40.889500
 10
83.411610
 20
40.499400
 10
83.287560
 20
40.091000
 10
83.243370
 20
39.936800
 10
83.193810
 20
39.807300
 10
83.138860
 20
39.702300
 10
83.078560
 20
39.622000
 10
83.009560
 20
39.562500
 10
82.927560
 20
39.520000
 10
82.832560
 20
39.494500
 10
82.724560
 20
39.486000
 10
82.604750
 20
39.498400
 10
82.495310
 20
39.535800
 10
82.396230
 20
39.598000
 10
82.307550
 20
39.685000
 10
82.234490
 20
39.788600
 10
82.182310
 20
39.901300
 10
82.150990
 20
40.023100
 10
82.140560
 20
40.154000
 10
82.140560
 20
43.868000
 10
82.149680
 20
44.065300
 10
82.177060
 20
44.239000
 10
82.222680
 20
44.389300
 10
82.286550
 20
44.516000
 10
82.367360
 20
44.616200
 10
82.463800
 20
44.687700
 10
82.575860
 20
44.730700
 10
82.703560
 20
44.745000
 10
82.752920
 20
44.743000
 10
82.797050
 20
44.737000
 10
82.835930
 20
44.727000
 10
82.869550
 20
44.713000
 10
82.902370
 20
44.695600
 10
82.975870
 20
44.649100
 10
83.016550
 20
44.620000
 10
83.099560
 20
44.536000
 10
83.159490
 20
44.457800
 10
83.214300
 20
44.390000
 10
83.263990
 20
44.332800
 10
83.308560
 20
44.286000
 10
83.350490
 20
44.246700
 10
83.392300
 20
44.212800
 10
83.433980
 20
44.184200
 10
83.475550
 20
44.161000
 10
83.497800
 20
44.151200
 10
83.522550
 20
44.142800
 10
83.579550
 20
44.130000
 10
83.642560
 20
44.121800
 10
83.705560
 20
44.119000
 10
83.830560
 20
44.119000
 10
83.885170
 20
44.132100
 10
83.945050
 20
44.150500
 10
84.010170
 20
44.174100
 10
84.164000
 20
44.239300
 10
84.539560
 20
44.411000
 10
84.654490
 20
44.470300
 10
84.769310
 20
44.523000
 10
84.884000
 20
44.569200
 10
84.998560
 20
44.609000
 10
85.228310
 20
44.679500
 10
85.457560
 20
44.745000
 10
85.572490
 20
44.774100
 10
85.687310
 20
44.799200
 10
85.802000
 20
44.820600
 10
85.916560
 20
44.838000
 10
86.031490
 20
44.852000
 10
86.146310
 20
44.862000
 10
86.261000
 20
44.868000
 10
86.375560
 20
44.870000
 10
86.375560
 20
43.722000
  0
LWPOLYLINE
 90
44
 70
0
 10
67.107200
 20
40.405000
 10
67.100700
 20
40.239900
 10
67.081200
 20
40.099800
 10
67.048700
 20
39.984400
 10
67.003200
 20
39.894000
 10
66.941300
 20
39.825300
 10
66.858500
 20
39.776300
 10
66.754800
 20
39.746800
 10
66.630200
 20
39.737000
 10
66.541700
 20
39.741600
 10
66.462200
 20
39.755300
 10
66.391700
 20
39.778100
 10
66.330200
 20
39.810000
 10
66.273900
 20
39.856300
 10
66.218700
 20
39.922300
 10
66.164900
 20
40.007800
 10
66.112200
 20
40.113000
 10
66.091700
 20
40.157800
 10
66.071000
 20
40.209300
 10
66.050200
 20
40.267300
 10
65.983000
 20
40.475500
 10
65.926200
 20
40.634000
 10
65.790200
 20
41.039100
 10
65.633200
 20
41.419500
 10
65.455200
 20
41.775100
 10
65.256200
 20
42.106000
 10
65.040700
 20
42.403800
 10
64.812000
 20
42.661300
 10
64.570200
 20
42.878300
 10
64.315200
 20
43.055000
 10
64.297500
 20
43.057800
 10
64.284200
 20
43.066000
 10
64.253200
 20
43.096000
 10
64.147400
 20
43.146500
 10
64.038700
 20
43.193000
 10
63.927400
 20
43.235500
 10
63.813200
 20
43.274000
 10
63.687800
 20
43.308500
 10
63.541500
 20
43.339000
 10
63.374300
 20
43.365500
 10
63.186200
 20
43.388000
 10
63.186200
 20
44.536000
 10
67.107200
 20
44.536000
 10
67.107200
 20
40.405000
  0
LWPOLYLINE
 90
31
 70
0
 10
105.307900
 20
40.968000
 10
105.300700
 20
40.766600
 10
105.279200
 20
40.600500
 10
105.243200
 20
40.469600
 10
105.192900
 20
40.374000
 10
105.123000
 20
40.305300
 10
105.028400
 20
40.256300
 10
104.909000
 20
40.226800
 10
104.764900
 20
40.217000
 10
104.686000
 20
40.221600
 10
104.616100
 20
40.235300
 10
104.555500
 20
40.258100
 10
104.503900
 20
40.290000
 10
104.456600
 20
40.333700
 10
104.407900
 20
40.391800
 10
104.357600
 20
40.464200
 10
104.305900
 20
40.551000
 10
104.239000
 20
40.687000
 10
104.213000
 20
40.749000
 10
104.201900
 20
40.780000
 10
103.963300
 20
41.350300
 10
103.685600
 20
41.850000
 10
103.368800
 20
42.279300
 10
103.012900
 20
42.638000
 10
102.607400
 20
42.929800
 10
102.141900
 20
43.159000
 10
101.616400
 20
43.325800
 10
101.030890
 20
43.430000
 10
101.030890
 20
44.536000
 10
105.307900
 20
44.536000
 10
105.307900
 20
40.968000
  0
LWPOLYLINE
 90
101
 70
0
 10
131.498500
 20
59.660130
 10
131.629800
 20
59.618500
 10
131.739000
 20
59.549140
 10
131.826100
 20
59.452000
 10
131.893000
 20
59.327100
 10
131.940800
 20
59.174500
 10
131.969500
 20
58.994100
 10
131.979100
 20
58.786000
 10
131.979100
 20
54.349000
 10
131.971000
 20
54.154100
 10
131.946800
 20
53.991500
 10
131.906500
 20
53.861100
 10
131.850100
 20
53.763000
 10
131.773100
 20
53.690800
 10
131.671100
 20
53.639300
 10
131.544100
 20
53.608300
 10
131.392100
 20
53.598000
 10
131.335000
 20
53.600200
 10
131.280800
 20
53.606800
 10
131.229500
 20
53.617700
 10
131.181100
 20
53.633000
 10
131.134100
 20
53.652800
 10
131.087100
 20
53.677000
 10
131.040100
 20
53.705800
 10
130.993100
 20
53.739000
 10
130.950900
 20
53.774100
 10
130.917300
 20
53.799000
 10
130.901800
 20
53.815000
 10
130.887800
 20
53.834000
 10
130.875100
 20
53.856000
 10
130.710600
 20
54.058800
 10
130.593100
 20
54.197000
 10
130.547600
 20
54.245900
 10
130.505100
 20
54.287500
 10
130.465600
 20
54.321900
 10
130.429100
 20
54.349000
 10
130.404800
 20
54.359500
 10
130.379100
 20
54.367000
 10
130.351800
 20
54.371500
 10
130.323100
 20
54.373000
 10
130.293300
 20
54.371500
 10
130.261800
 20
54.367000
 10
130.228800
 20
54.359500
 10
130.194100
 20
54.349000
 10
129.654100
 20
54.232000
 10
129.330500
 20
54.109900
 10
128.993600
 20
54.002500
 10
128.643500
 20
53.909900
 10
128.280100
 20
53.832000
 10
127.897600
 20
53.763000
 10
127.490100
 20
53.697000
 10
127.057600
 20
53.634000
 10
126.600100
 20
53.574000
 10
126.600100
 20
54.842000
 10
126.974800
 20
54.866700
 10
127.322800
 20
54.917800
 10
127.644300
 20
54.995200
 10
127.939100
 20
55.099000
 10
128.212300
 20
55.228700
 10
128.467800
 20
55.384800
 10
128.705800
 20
55.567200
 10
128.926100
 20
55.776000
 10
128.984600
 20
55.836300
 10
129.043100
 20
55.901000
 10
129.101600
 20
55.970300
 10
129.160100
 20
56.044000
 10
129.219100
 20
56.122200
 10
129.278100
 20
56.204800
 10
129.337100
 20
56.291700
 10
129.489600
 20
56.525900
 10
129.583300
 20
56.674800
 10
129.677100
 20
56.829400
 10
129.771100
 20
56.990000
 10
129.862100
 20
57.153100
 10
129.947300
 20
57.316300
 10
130.026700
 20
57.479600
 10
130.100100
 20
57.643000
 10
130.179600
 20
57.795000
 10
130.253100
 20
57.947000
 10
130.320600
 20
58.099000
 10
130.382100
 20
58.251000
 10
130.437700
 20
58.401100
 10
130.487600
 20
58.548300
 10
130.531700
 20
58.692600
 10
130.570100
 20
58.834000
 10
130.580100
 20
58.856300
 10
130.587300
 20
58.877300
 10
130.591600
 20
58.896800
 10
130.594600
 20
58.933300
 10
130.599100
 20
58.953000
 10
130.606600
 20
58.974300
 10
130.617100
 20
58.997000
 10
130.678500
 20
59.179400
 10
130.745800
 20
59.329800
 10
130.819000
 20
59.447900
 10
130.898100
 20
59.534000
 10
130.987900
 20
59.595270
 10
131.092300
 20
59.639010
 10
131.211400
 20
59.665260
 10
131.345100
 20
59.674000
 10
131.498500
 20
59.660130
  0
LWPOLYLINE
 90
65
 70
0
 10
125.419100
 20
68.588002
 10
125.212500
 20
68.486700
 10
125.039800
 20
68.370760
 10
124.901000
 20
68.240190
 10
124.796100
 20
68.095010
 10
124.719100
 20
67.920000
 10
124.664100
 20
67.701010
 10
124.631100
 20
67.438010
 10
124.620100
 20
67.131000
 10
124.620100
 20
56.463000
 10
124.635900
 20
56.139400
 10
124.683600
 20
55.849500
 10
124.763000
 20
55.593400
 10
124.874100
 20
55.371000
 10
125.018500
 20
55.183400
 10
125.197800
 20
55.032800
 10
125.412000
 20
54.918900
 10
125.661100
 20
54.842000
 10
125.661100
 20
53.598000
 10
125.470100
 20
53.601000
 10
125.273100
 20
53.610000
 10
125.076800
 20
53.624300
 10
124.886100
 20
53.645000
 10
124.663000
 20
53.685900
 10
124.439800
 20
53.738800
 10
124.216500
 20
53.803400
 10
123.993100
 20
53.880000
 10
123.765600
 20
53.969400
 10
123.529300
 20
54.073500
 10
123.284100
 20
54.192400
 10
123.030100
 20
54.326000
 10
122.166200
 20
54.891300
 10
121.406600
 20
55.577000
 10
120.751200
 20
56.383300
 10
120.200100
 20
57.310000
 10
119.763500
 20
58.339100
 10
119.451600
 20
59.453500
 10
119.264500
 20
60.653130
 10
119.202100
 20
61.938010
 10
119.264800
 20
63.156130
 10
119.453100
 20
64.296510
 10
119.766800
 20
65.359140
 10
120.206100
 20
66.344010
 10
120.760600
 20
67.231510
 10
121.420300
 20
68.003010
 10
122.185100
 20
68.658513
 10
123.055100
 20
69.198003
 10
123.160500
 20
69.255070
 10
123.265800
 20
69.309254
 10
123.371000
 20
69.360570
 10
123.476100
 20
69.409001
 10
123.582500
 20
69.453069
 10
123.691800
 20
69.491261
 10
123.804000
 20
69.523564
 10
123.919100
 20
69.549992
 10
124.115500
 20
69.616810
 10
124.307600
 20
69.676244
 10
124.495500
 20
69.728307
 10
124.679100
 20
69.773000
 10
124.854500
 20
69.809300
 10
125.016600
 20
69.835240
 10
125.165500
 20
69.850804
 10
125.301100
 20
69.855992
 10
125.419100
 20
69.855992
 10
125.419100
 20
68.588002
  0
LWPOLYLINE
 90
66
 70
0
 10
167.303600
 20
57.027000
 10
167.562600
 20
56.463000
 10
167.685200
 20
56.237600
 10
167.818100
 20
56.031300
 10
167.961200
 20
55.844100
 10
168.114600
 20
55.676000
 10
168.285600
 20
55.522600
 10
168.481600
 20
55.379500
 10
168.702600
 20
55.246600
 10
169.230600
 20
54.983000
 10
169.294800
 20
54.935300
 10
169.347300
 20
54.886300
 10
169.388300
 20
54.835800
 10
169.417600
 20
54.784000
 10
169.438100
 20
54.727400
 10
169.452800
 20
54.663500
 10
169.461600
 20
54.592400
 10
169.464600
 20
54.514000
 10
169.452100
 20
54.359800
 10
169.414600
 20
54.226300
 10
169.352100
 20
54.113300
 10
169.264600
 20
54.021000
 10
169.152600
 20
53.947400
 10
169.015600
 20
53.891500
 10
168.853600
 20
53.853400
 10
168.666600
 20
53.833000
 10
165.824600
 20
53.856000
 10
165.541800
 20
53.864800
 10
165.304600
 20
53.891300
 10
165.112800
 20
53.935300
 10
164.966600
 20
53.997000
 10
164.859000
 20
54.082200
 10
164.782100
 20
54.196800
 10
164.736000
 20
54.340700
 10
164.720600
 20
54.514000
 10
164.723500
 20
54.591600
 10
164.732300
 20
54.660500
 10
164.747000
 20
54.720600
 10
164.767600
 20
54.772000
 10
164.798400
 20
54.819000
 10
164.843800
 20
54.866000
 10
164.903900
 20
54.913000
 10
165.015500
 20
54.983500
 10
165.098000
 20
55.030500
 10
165.193500
 20
55.077500
 10
165.249100
 20
55.101000
 10
165.377600
 20
55.148000
 10
165.563600
 20
55.235200
 10
165.721600
 20
55.332800
 10
165.851600
 20
55.440700
 10
165.953600
 20
55.559000
 10
166.030600
 20
55.688700
 10
166.085600
 20
55.831800
 10
166.118600
 20
55.988200
 10
166.129600
 20
56.158000
 10
166.126600
 20
56.252000
 10
166.117600
 20
56.346000
 10
166.103300
 20
56.445800
 10
166.070300
 20
56.616700
 10
166.040800
 20
56.740200
 10
166.005300
 20
56.866300
 10
165.985600
 20
56.924300
 10
165.964300
 20
56.977800
 10
164.743600
 20
59.728000
 10
165.401600
 20
61.231010
 10
167.303600
 20
57.027000
  0
LWPOLYLINE
 90
127
 70
0
 10
165.658900
 20
69.527196
 10
165.871800
 20
69.500752
 10
166.046400
 20
69.456700
 10
166.182600
 20
69.395009
 10
166.285400
 20
69.312764
 10
166.358800
 20
69.207005
 10
166.402900
 20
69.077763
 10
166.417600
 20
68.925008
 10
166.408800
 20
68.802632
 10
166.382300
 20
68.693501
 10
166.338300
 20
68.597630
 10
166.276600
 20
68.515000
 10
166.199200
 20
68.445130
 10
166.106800
 20
68.388510
 10
165.999600
 20
68.345130
 10
165.877600
 20
68.315010
 10
165.810300
 20
68.294260
 10
165.686800
 20
68.265000
 10
165.619600
 20
68.244010
 10
165.438400
 20
68.182510
 10
165.293800
 20
68.115010
 10
165.185900
 20
68.041510
 10
165.114600
 20
67.962010
 10
165.068200
 20
67.861820
 10
165.035100
 20
67.726260
 10
165.015200
 20
67.555320
 10
165.008600
 20
67.349000
 10
165.008600
 20
62.333010
 10
162.307600
 20
56.186000
 10
162.304600
 20
56.160000
 10
162.289300
 20
56.110800
 10
162.281300
 20
56.095000
 10
162.271800
 20
56.080800
 10
162.260600
 20
56.068000
 10
162.257600
 20
56.024000
 10
162.243800
 20
55.967800
 10
162.238300
 20
55.926800
 10
162.237600
 20
55.904000
 10
162.216600
 20
55.830300
 10
162.201600
 20
55.751000
 10
162.191300
 20
55.646800
 10
162.190600
 20
55.621000
 10
162.194200
 20
55.562800
 10
162.205100
 20
55.506000
 10
162.223200
 20
55.450800
 10
162.248600
 20
55.397000
 10
162.280300
 20
55.346300
 10
162.316300
 20
55.300000
 10
162.356800
 20
55.258300
 10
162.401600
 20
55.221000
 10
162.730600
 20
55.032000
 10
162.807500
 20
54.971600
 10
162.874100
 20
54.908300
 10
162.930500
 20
54.842100
 10
162.976600
 20
54.773000
 10
163.012900
 20
54.701000
 10
163.038800
 20
54.626000
 10
163.054400
 20
54.548000
 10
163.059600
 20
54.467000
 10
163.045600
 20
54.314300
 10
163.003600
 20
54.185000
 10
162.933600
 20
54.079300
 10
162.835600
 20
53.997000
 10
162.708700
 20
53.933900
 10
162.551100
 20
53.885500
 10
162.362700
 20
53.851900
 10
162.143600
 20
53.833000
 10
156.506600
 20
53.856000
 10
156.297800
 20
53.864800
 10
156.118300
 20
53.891300
 10
155.968300
 20
53.935300
 10
155.847600
 20
53.997000
 10
155.755300
 20
54.077800
 10
155.689300
 20
54.179000
 10
155.649800
 20
54.300800
 10
155.636600
 20
54.443000
 10
155.638000
 20
54.516500
 10
155.642300
 20
54.582000
 10
155.649500
 20
54.639500
 10
155.659600
 20
54.689000
 10
155.676000
 20
54.734800
 10
155.701100
 20
54.782300
 10
155.735000
 20
54.831300
 10
155.777600
 20
54.882000
 10
155.804000
 20
54.908800
 10
155.836300
 20
54.937300
 10
155.874500
 20
54.967300
 10
156.220100
 20
55.201000
 10
156.300800
 20
55.264000
 10
156.372600
 20
55.330000
 10
156.435600
 20
55.399000
 10
156.492600
 20
55.475300
 10
156.546800
 20
55.563300
 10
156.598100
 20
55.662800
 10
156.646600
 20
55.774000
 10
159.888600
 20
63.486010
 10
159.888600
 20
67.377000
 10
159.882700
 20
67.571890
 10
159.865100
 20
67.734500
 10
159.835700
 20
67.864890
 10
159.794600
 20
67.963000
 10
159.728500
 20
68.042130
 10
159.624300
 20
68.115510
 10
159.482000
 20
68.183130
 10
159.301600
 20
68.245010
 10
159.276600
 20
68.255820
 10
159.248600
 20
68.265260
 10
159.217600
 20
68.273320
 10
159.065100
 20
68.304190
 10
158.897500
 20
68.345130
 10
158.790100
 20
68.388510
 10
158.697500
 20
68.445130
 10
158.619600
 20
68.515000
 10
158.558300
 20
68.596196
 10
158.514600
 20
68.687764
 10
158.488300
 20
68.789693
 10
158.479600
 20
68.902013
 10
158.495000
 20
69.055501
 10
158.541100
 20
69.187001
 10
158.618000
 20
69.296513
 10
158.725600
 20
69.384007
 10
158.865900
 20
69.450505
 10
159.039800
 20
69.498006
 10
159.247400
 20
69.526509
 10
159.488600
 20
69.536000
 10
165.407600
 20
69.536000
 10
165.658900
 20
69.527196
  0
LWPOLYLINE
 90
118
 70
0
 10
100.003430
 20
69.526448
 10
100.177740
 20
69.497761
 10
100.326930
 20
69.449940
 10
100.450980
 20
69.383000
 10
100.548990
 20
69.297002
 10
100.618980
 20
69.192006
 10
100.660990
 20
69.068013
 10
100.674980
 20
68.925008
 10
100.667610
 20
68.823140
 10
100.645490
 20
68.728505
 10
100.608610
 20
68.641133
 10
100.556990
 20
68.561009
 10
100.491050
 20
68.489690
 10
100.410240
 20
68.428760
 10
100.314550
 20
68.378190
 10
100.203990
 20
68.338000
 10
100.112740
 20
68.312000
 10
100.026990
 20
68.280000
 10
99.910740
 20
68.233330
 10
99.874990
 20
68.221010
 10
99.757990
 20
68.161000
 10
99.665990
 20
68.098010
 10
99.598990
 20
68.032000
 10
99.556990
 20
67.963000
 10
99.531180
 20
67.877890
 10
99.512730
 20
67.763510
 10
99.501670
 20
67.619880
 10
99.497990
 20
67.447010
 10
99.497990
 20
56.008000
 10
99.501670
 20
55.845600
 10
99.512730
 20
55.709500
 10
99.531180
 20
55.599600
 10
99.556990
 20
55.516000
 10
99.598990
 20
55.447000
 10
99.665990
 20
55.381000
 10
99.757990
 20
55.318000
 10
99.874990
 20
55.258000
 10
99.986730
 20
55.216800
 10
100.069180
 20
55.182800
 10
100.157680
 20
55.153300
 10
100.203990
 20
55.141000
 10
100.314550
 20
55.096300
 10
100.410240
 20
55.040300
 10
100.491050
 20
54.972800
 10
100.556990
 20
54.894000
 10
100.608610
 20
54.805000
 10
100.645490
 20
54.708000
 10
100.667610
 20
54.603000
 10
100.674980
 20
54.490000
 10
100.661740
 20
54.337700
 10
100.621990
 20
54.208800
 10
100.555730
 20
54.103200
 10
100.462990
 20
54.021000
 10
100.342290
 20
53.956400
 10
100.192240
 20
53.903500
 10
100.012800
 20
53.862400
 10
99.803990
 20
53.833000
 10
94.379980
 20
53.833000
 10
94.074990
 20
53.856000
 10
93.875990
 20
53.865600
 10
93.701990
 20
53.894300
 10
93.552990
 20
53.942100
 10
93.428990
 20
54.009000
 10
93.331430
 20
54.096100
 10
93.261740
 20
54.205300
 10
93.219920
 20
54.336600
 10
93.205990
 20
54.490000
 10
93.213300
 20
54.603000
 10
93.235240
 20
54.708000
 10
93.271800
 20
54.805000
 10
93.322990
 20
54.894000
 10
93.389310
 20
54.972800
 10
93.470240
 20
55.040300
 10
93.565800
 20
55.096300
 10
93.675990
 20
55.141000
 10
93.766990
 20
55.167300
 10
93.810240
 20
55.182800
 10
93.930990
 20
55.232000
 10
94.003990
 20
55.258000
 10
94.120920
 20
55.318000
 10
94.212730
 20
55.381000
 10
94.279430
 20
55.447000
 10
94.320990
 20
55.516000
 10
94.346800
 20
55.598200
 10
94.365240
 20
55.703800
 10
94.376310
 20
55.832700
 10
94.379980
 20
55.985000
 10
94.379980
 20
67.471010
 10
94.376310
 20
67.633380
 10
94.365240
 20
67.769510
 10
94.346800
 20
67.879380
 10
94.320990
 20
67.963000
 10
94.279430
 20
68.032000
 10
94.212730
 20
68.098010
 10
94.120920
 20
68.161000
 10
94.003990
 20
68.221010
 10
93.892240
 20
68.262820
 10
93.810240
 20
68.296760
 10
93.722240
 20
68.325760
 10
93.675990
 20
68.338000
 10
93.565800
 20
68.378190
 10
93.470240
 20
68.428760
 10
93.389310
 20
68.489690
 10
93.322990
 20
68.561009
 10
93.271800
 20
68.641133
 10
93.235240
 20
68.728505
 10
93.213300
 20
68.823140
 10
93.205990
 20
68.925008
 10
93.219170
 20
69.068013
 10
93.258740
 20
69.192006
 10
93.324670
 20
69.297002
 10
93.416990
 20
69.383000
 10
93.537610
 20
69.449940
 10
93.687490
 20
69.497761
 10
93.866620
 20
69.526448
 10
94.074990
 20
69.536000
 10
99.803990
 20
69.536000
 10
100.003430
 20
69.526448
  0
LWPOLYLINE
 90
118
 70
0
 10
73.522300
 20
69.526448
 10
73.696700
 20
69.497761
 10
73.845800
 20
69.449940
 10
73.969900
 20
69.383000
 10
74.067900
 20
69.297002
 10
74.137900
 20
69.192006
 10
74.179900
 20
69.068013
 10
74.193900
 20
68.925008
 10
74.186500
 20
68.823140
 10
74.164400
 20
68.728505
 10
74.127500
 20
68.641133
 10
74.075900
 20
68.561009
 10
74.010000
 20
68.489690
 10
73.929200
 20
68.428760
 10
73.833500
 20
68.378190
 10
73.722900
 20
68.338000
 10
73.631700
 20
68.312000
 10
73.545900
 20
68.280000
 10
73.429700
 20
68.233330
 10
73.393900
 20
68.221010
 10
73.276900
 20
68.161000
 10
73.184900
 20
68.098010
 10
73.117900
 20
68.032000
 10
73.075900
 20
67.963000
 10
73.050100
 20
67.877890
 10
73.031700
 20
67.763510
 10
73.020600
 20
67.619880
 10
73.016900
 20
67.447010
 10
73.016900
 20
56.008000
 10
73.020600
 20
55.845600
 10
73.031700
 20
55.709500
 10
73.050100
 20
55.599600
 10
73.075900
 20
55.516000
 10
73.117900
 20
55.447000
 10
73.184900
 20
55.381000
 10
73.276900
 20
55.318000
 10
73.393900
 20
55.258000
 10
73.505700
 20
55.216800
 10
73.588100
 20
55.182800
 10
73.676600
 20
55.153300
 10
73.722900
 20
55.141000
 10
73.833500
 20
55.096300
 10
73.929200
 20
55.040300
 10
74.010000
 20
54.972800
 10
74.075900
 20
54.894000
 10
74.127500
 20
54.805000
 10
74.164400
 20
54.708000
 10
74.186500
 20
54.603000
 10
74.193900
 20
54.490000
 10
74.180700
 20
54.337700
 10
74.140900
 20
54.208800
 10
74.074700
 20
54.103200
 10
73.981900
 20
54.021000
 10
73.861200
 20
53.956400
 10
73.711200
 20
53.903500
 10
73.531700
 20
53.862400
 10
73.322900
 20
53.833000
 10
67.898900
 20
53.833000
 10
67.593900
 20
53.856000
 10
67.394900
 20
53.865600
 10
67.220900
 20
53.894300
 10
67.071900
 20
53.942100
 10
66.947900
 20
54.009000
 10
66.850400
 20
54.096100
 10
66.780700
 20
54.205300
 10
66.738800
 20
54.336600
 10
66.724900
 20
54.490000
 10
66.732200
 20
54.603000
 10
66.754200
 20
54.708000
 10
66.790700
 20
54.805000
 10
66.841900
 20
54.894000
 10
66.908200
 20
54.972800
 10
66.989200
 20
55.040300
 10
67.084700
 20
55.096300
 10
67.194900
 20
55.141000
 10
67.285900
 20
55.167300
 10
67.329200
 20
55.182800
 10
67.449900
 20
55.232000
 10
67.522900
 20
55.258000
 10
67.639800
 20
55.318000
 10
67.731700
 20
55.381000
 10
67.798300
 20
55.447000
 10
67.839900
 20
55.516000
 10
67.865700
 20
55.598200
 10
67.884200
 20
55.703800
 10
67.895200
 20
55.832700
 10
67.898900
 20
55.985000
 10
67.898900
 20
67.471010
 10
67.895200
 20
67.633380
 10
67.884200
 20
67.769510
 10
67.865700
 20
67.879380
 10
67.839900
 20
67.963000
 10
67.798300
 20
68.032000
 10
67.731700
 20
68.098010
 10
67.639800
 20
68.161000
 10
67.522900
 20
68.221010
 10
67.411200
 20
68.262820
 10
67.329200
 20
68.296760
 10
67.241200
 20
68.325760
 10
67.194900
 20
68.338000
 10
67.084700
 20
68.378190
 10
66.989200
 20
68.428760
 10
66.908200
 20
68.489690
 10
66.841900
 20
68.561009
 10
66.790700
 20
68.641133
 10
66.754200
 20
68.728505
 10
66.732200
 20
68.823140
 10
66.724900
 20
68.925008
 10
66.738100
 20
69.068013
 10
66.777700
 20
69.192006
 10
66.843600
 20
69.297002
 10
66.935900
 20
69.383000
 10
67.056500
 20
69.449940
 10
67.206400
 20
69.497761
 10
67.385500
 20
69.526448
 10
67.593900
 20
69.536000
 10
73.322900
 20
69.536000
 10
73.522300
 20
69.526448
  0
LWPOLYLINE
 90
35
 70
0
 10
41.252100
 20
60.593010
 10
41.252100
 20
56.771000
 10
40.266000
 20
60.247010
 10
38.012000
 20
53.856000
 10
32.636100
 20
53.879000
 10
32.457600
 20
53.889300
 10
32.298300
 20
53.920300
 10
32.158100
 20
53.971800
 10
32.037100
 20
54.044000
 10
31.939500
 20
54.134900
 10
31.869800
 20
54.243500
 10
31.828000
 20
54.369900
 10
31.814000
 20
54.514000
 10
31.825800
 20
54.648400
 10
31.861000
 20
54.769800
 10
31.919800
 20
54.877900
 10
32.002100
 20
54.973000
 10
32.107800
 20
55.054400
 10
32.237100
 20
55.122500
 10
32.389800
 20
55.177400
 10
32.566000
 20
55.219000
 10
32.721700
 20
55.260400
 10
32.859600
 20
55.313500
 10
32.979700
 20
55.378400
 10
33.082100
 20
55.455000
 10
33.174600
 20
55.550300
 10
33.264300
 20
55.672000
 10
33.351100
 20
55.820300
 10
33.435100
 20
55.995000
 10
33.461100
 20
56.086300
 10
33.493100
 20
56.172000
 10
33.539700
 20
56.288300
 10
38.012000
 20
69.536000
 10
38.599100
 20
69.536000
 10
41.252100
 20
60.593010
  0
LWPOLYLINE
 90
33
 70
0
 10
28.934000
 20
58.637800
 10
29.053800
 20
58.607000
 10
29.151500
 20
58.555800
 10
29.227100
 20
58.484000
 10
29.283500
 20
58.388300
 10
29.323800
 20
58.266300
 10
29.348000
 20
58.117800
 10
29.356100
 20
57.943000
 10
29.356100
 20
53.856000
 10
24.705100
 20
53.856000
 10
24.705100
 20
55.242000
 10
25.343700
 20
55.347000
 10
25.920600
 20
55.521000
 10
26.435700
 20
55.764000
 10
26.889100
 20
56.076000
 10
27.287100
 20
56.464300
 10
27.635300
 20
56.936300
 10
27.933600
 20
57.491800
 10
28.182100
 20
58.131000
 10
28.184800
 20
58.157800
 10
28.193100
 20
58.190000
 10
28.208100
 20
58.222300
 10
28.217800
 20
58.236300
 10
28.229100
 20
58.249000
 10
28.277100
 20
58.356900
 10
28.328100
 20
58.445800
 10
28.382100
 20
58.515400
 10
28.439100
 20
58.566000
 10
28.505400
 20
58.601900
 10
28.586300
 20
58.627500
 10
28.681900
 20
58.642900
 10
28.792100
 20
58.648000
 10
28.934000
 20
58.637800
  0
LWPOLYLINE
 90
62
 70
0
 10
23.747100
 20
53.856000
 10
18.627100
 20
53.856000
 10
18.322100
 20
53.879000
 10
18.123100
 20
53.888600
 10
17.949100
 20
53.917300
 10
17.800100
 20
53.965100
 10
17.676100
 20
54.032000
 10
17.578500
 20
54.119500
 10
17.508800
 20
54.229000
 10
17.467000
 20
54.360500
 10
17.453100
 20
54.514000
 10
17.460400
 20
54.616300
 10
17.482300
 20
54.711300
 10
17.518900
 20
54.798800
 10
17.570100
 20
54.879000
 10
17.635900
 20
54.949900
 10
17.716600
 20
55.010800
 10
17.811900
 20
55.061500
 10
17.922100
 20
55.102000
 10
18.013100
 20
55.128300
 10
18.056300
 20
55.143800
 10
18.177800
 20
55.193000
 10
18.251100
 20
55.219000
 10
18.367600
 20
55.279400
 10
18.459300
 20
55.342800
 10
18.526100
 20
55.408900
 10
18.568100
 20
55.478000
 10
18.593900
 20
55.560300
 10
18.612300
 20
55.666000
 10
18.623400
 20
55.795300
 10
18.627100
 20
55.948000
 10
18.627100
 20
67.468010
 10
18.623400
 20
67.631260
 10
18.612300
 20
67.768010
 10
18.593900
 20
67.878250
 10
18.568100
 20
67.962010
 10
18.526100
 20
68.031010
 10
18.459300
 20
68.097000
 10
18.367600
 20
68.160010
 10
18.251100
 20
68.220010
 10
18.138800
 20
68.262200
 10
18.056300
 20
68.295830
 10
17.968300
 20
68.325320
 10
17.922100
 20
68.338000
 10
17.811900
 20
68.378190
 10
17.716600
 20
68.428760
 10
17.635900
 20
68.489690
 10
17.570100
 20
68.561009
 10
17.518900
 20
68.641133
 10
17.482300
 20
68.728505
 10
17.460400
 20
68.823140
 10
17.453100
 20
68.925008
 10
17.466300
 20
69.068013
 10
17.505800
 20
69.192006
 10
17.571800
 20
69.297002
 10
17.664100
 20
69.383000
 10
17.784300
 20
69.449940
 10
17.934100
 20
69.497761
 10
18.113300
 20
69.526448
 10
18.322100
 20
69.536000
 10
23.747100
 20
69.536000
 10
23.747100
 20
53.856000
  0
LWPOLYLINE
 90
62
 70
0
 10
177.557400
 20
53.856000
 10
172.437400
 20
53.856000
 10
172.132400
 20
53.879000
 10
171.933400
 20
53.888600
 10
171.759400
 20
53.917300
 10
171.610400
 20
53.965100
 10
171.486400
 20
54.032000
 10
171.388800
 20
54.119500
 10
171.319200
 20
54.229000
 10
171.277400
 20
54.360500
 10
171.263400
 20
54.514000
 10
171.270700
 20
54.616300
 10
171.292700
 20
54.711300
 10
171.329200
 20
54.798800
 10
171.380400
 20
54.879000
 10
171.446300
 20
54.949900
 10
171.526900
 20
55.010800
 10
171.622300
 20
55.061500
 10
171.732400
 20
55.102000
 10
171.823400
 20
55.128300
 10
171.866700
 20
55.143800
 10
171.988200
 20
55.193000
 10
172.061400
 20
55.219000
 10
172.178000
 20
55.279400
 10
172.269700
 20
55.342800
 10
172.336500
 20
55.408900
 10
172.378400
 20
55.478000
 10
172.404200
 20
55.560300
 10
172.422700
 20
55.666000
 10
172.433700
 20
55.795300
 10
172.437400
 20
55.948000
 10
172.437400
 20
67.468010
 10
172.433700
 20
67.631260
 10
172.422700
 20
67.768010
 10
172.404200
 20
67.878250
 10
172.378400
 20
67.962010
 10
172.336500
 20
68.031010
 10
172.269700
 20
68.097000
 10
172.178000
 20
68.160010
 10
172.061400
 20
68.220010
 10
171.949100
 20
68.262200
 10
171.866700
 20
68.295830
 10
171.778700
 20
68.325320
 10
171.732400
 20
68.338000
 10
171.622300
 20
68.378190
 10
171.526900
 20
68.428760
 10
171.446300
 20
68.489690
 10
171.380400
 20
68.561009
 10
171.329200
 20
68.641133
 10
171.292700
 20
68.728505
 10
171.270700
 20
68.823140
 10
171.263400
 20
68.925008
 10
171.276600
 20
69.068013
 10
171.316200
 20
69.192006
 10
171.382100
 20
69.297002
 10
171.474400
 20
69.383000
 10
171.594700
 20
69.449940
 10
171.744400
 20
69.497761
 10
171.923700
 20
69.526448
 10
172.132400
 20
69.536000
 10
177.557400
 20
69.536000
 10
177.557400
 20
53.856000
  0
LWPOLYLINE
 90
85
 70
0
 10
47.839300
 20
69.526448
 10
48.011100
 20
69.497761
 10
48.156300
 20
69.449940
 10
48.275000
 20
69.383000
 10
48.367800
 20
69.297002
 10
48.434000
 20
69.192006
 10
48.473800
 20
69.068013
 10
48.487100
 20
68.925008
 10
48.480400
 20
68.823140
 10
48.460500
 20
68.728505
 10
48.427400
 20
68.641133
 10
48.381100
 20
68.561009
 10
48.320000
 20
68.489690
 10
48.242800
 20
68.428760
 10
48.149500
 20
68.378190
 10
48.040000
 20
68.338000
 10
47.946100
 20
68.311250
 10
47.688000
 20
68.220010
 10
47.571500
 20
68.160010
 10
47.479800
 20
68.097000
 10
47.413000
 20
68.031010
 10
47.371100
 20
67.962010
 10
47.345200
 20
67.876820
 10
47.326800
 20
67.762260
 10
47.315700
 20
67.618320
 10
47.312100
 20
67.445010
 10
47.312100
 20
55.971000
 10
47.315700
 20
55.807800
 10
47.326800
 20
55.671000
 10
47.345200
 20
55.560800
 10
47.371100
 20
55.477000
 10
47.413000
 20
55.408000
 10
47.479800
 20
55.342000
 10
47.571500
 20
55.279000
 10
47.688000
 20
55.219000
 10
47.899100
 20
55.143200
 10
47.993100
 20
55.113700
 10
48.040000
 20
55.101000
 10
48.149500
 20
55.060800
 10
48.242800
 20
55.010300
 10
48.320000
 20
54.949300
 10
48.381100
 20
54.878000
 10
48.427400
 20
54.797900
 10
48.460500
 20
54.710500
 10
48.480400
 20
54.615900
 10
48.487100
 20
54.514000
 10
48.473800
 20
54.361300
 10
48.434000
 20
54.232000
 10
48.367800
 20
54.126300
 10
48.275000
 20
54.044000
 10
48.156300
 20
53.979400
 10
48.011100
 20
53.926500
 10
47.839300
 20
53.885400
 10
47.641000
 20
53.856000
 10
42.192100
 20
53.856000
 10
42.192100
 20
67.374010
 10
42.186200
 20
67.569390
 10
42.168600
 20
67.732500
 10
42.139200
 20
67.863380
 10
42.098000
 20
67.962010
 10
42.032000
 20
68.041130
 10
41.927800
 20
68.114510
 10
41.785500
 20
68.182130
 10
41.605100
 20
68.244010
 10
41.580100
 20
68.254830
 10
41.552100
 20
68.264260
 10
41.323100
 20
68.314020
 10
41.200900
 20
68.344140
 10
41.093500
 20
68.387500
 10
41.000900
 20
68.444130
 10
40.923000
 20
68.514010
 10
40.861800
 20
68.595631
 10
40.818000
 20
68.687505
 10
40.791800
 20
68.789632
 10
40.783000
 20
68.902013
 10
40.798400
 20
69.055501
 10
40.844600
 20
69.187001
 10
40.921400
 20
69.296513
 10
41.029000
 20
69.384007
 10
41.169400
 20
69.450505
 10
41.343500
 20
69.498006
 10
41.551400
 20
69.526509
 10
41.793100
 20
69.536000
 10
47.641000
 20
69.536000
 10
47.839300
 20
69.526448
  0
LWPOLYLINE
 90
88
 70
0
 10
7.082100
 20
69.526509
 10
7.295000
 20
69.498006
 10
7.469600
 20
69.450505
 10
7.606200
 20
69.384007
 10
7.709000
 20
69.296513
 10
7.782500
 20
69.187001
 10
7.826500
 20
69.055501
 10
7.841200
 20
68.902013
 10
7.832400
 20
68.789632
 10
7.806000
 20
68.687505
 10
7.761900
 20
68.595631
 10
7.700200
 20
68.514010
 10
7.622300
 20
68.442690
 10
7.529700
 20
68.381760
 10
7.422300
 20
68.331200
 10
7.300200
 20
68.291000
 10
7.172200
 20
68.255570
 10
7.100200
 20
68.233510
 10
7.065200
 20
68.226000
 10
7.030200
 20
68.221500
 10
6.995200
 20
68.220010
 10
6.824800
 20
68.158570
 10
6.689700
 20
68.091250
 10
6.589800
 20
68.018070
 10
6.525200
 20
67.939020
 10
6.484100
 20
67.840320
 10
6.454700
 20
67.709260
 10
6.437100
 20
67.545830
 10
6.431200
 20
67.350010
 10
6.431200
 20
53.856000
 10
1.311200
 20
53.856000
 10
1.006200
 20
53.879000
 10
0.807200
 20
53.888600
 10
0.633200
 20
53.917300
 10
0.484200
 20
53.965100
 10
0.360200
 20
54.032000
 10
0.262700
 20
54.117600
 10
0.193000
 20
54.222500
 10
0.151100
 20
54.346600
 10
0.137200
 20
54.490000
 10
0.144500
 20
54.601600
 10
0.166500
 20
54.701500
 10
0.203000
 20
54.789600
 10
0.254200
 20
54.866000
 10
0.320100
 20
54.933600
 10
0.400700
 20
54.995300
 10
0.496100
 20
55.051100
 10
0.606200
 20
55.101000
 10
0.697200
 20
55.127800
 10
0.935200
 20
55.219000
 10
1.051800
 20
55.279100
 10
1.143500
 20
55.342300
 10
1.210300
 20
55.408600
 10
1.252200
 20
55.478000
 10
1.278000
 20
55.560300
 10
1.296500
 20
55.666000
 10
1.307500
 20
55.795300
 10
1.311200
 20
55.948000
 10
1.311200
 20
67.468010
 10
1.306800
 20
67.621510
 10
1.293500
 20
67.753010
 10
1.271300
 20
67.862510
 10
1.240200
 20
67.950000
 10
1.193500
 20
68.024250
 10
1.123200
 20
68.094010
 10
1.029500
 20
68.159260
 10
0.886500
 20
68.232700
 10
0.782200
 20
68.279010
 10
0.697200
 20
68.311250
 10
0.606200
 20
68.338000
 10
0.496100
 20
68.378190
 10
0.400700
 20
68.428760
 10
0.320100
 20
68.489690
 10
0.254200
 20
68.561009
 10
0.203000
 20
68.641133
 10
0.166500
 20
68.728505
 10
0.144500
 20
68.823140
 10
0.137200
 20
68.925008
 10
0.150400
 20
69.068013
 10
0.190000
 20
69.192006
 10
0.255900
 20
69.297002
 10
0.348200
 20
69.383000
 10
0.468500
 20
69.449940
 10
0.618200
 20
69.497761
 10
0.797500
 20
69.526448
 10
1.006200
 20
69.536000
 10
6.831200
 20
69.536000
 10
7.082100
 20
69.526509
  0
LWPOLYLINE
 90
71
 70
0
 10
64.297300
 20
69.527196
 10
64.478800
 20
69.500752
 10
64.632300
 20
69.456700
 10
64.757800
 20
69.395009
 10
64.855400
 20
69.317189
 10
64.925100
 20
69.224751
 10
64.966900
 20
69.117696
 10
64.980800
 20
68.996007
 10
64.975600
 20
68.895192
 10
64.960100
 20
68.804753
 10
64.934100
 20
68.724690
 10
64.897800
 20
68.655003
 10
64.847200
 20
68.591191
 10
64.777600
 20
68.528750
 10
64.688700
 20
68.467700
 10
64.580800
 20
68.408010
 10
64.554600
 20
68.405260
 10
64.521800
 20
68.397010
 10
64.505100
 20
68.390260
 10
64.489800
 20
68.382010
 10
64.476100
 20
68.372260
 10
64.463800
 20
68.361010
 10
64.342400
 20
68.310380
 10
64.237100
 20
68.252510
 10
64.147900
 20
68.187380
 10
64.074800
 20
68.115010
 10
64.012500
 20
68.027440
 10
63.954600
 20
67.917760
 10
63.901000
 20
67.785940
 10
63.831600
 20
67.564760
 10
60.606800
 20
53.856000
 10
55.972800
 20
53.856000
 10
55.690800
 20
54.983000
 10
57.807800
 20
64.287010
 10
55.220800
 20
64.287010
 10
54.914800
 20
65.696000
 10
58.122800
 20
65.696000
 10
58.497800
 20
67.358010
 10
58.521800
 20
67.685000
 10
58.517400
 20
67.785390
 10
58.504100
 20
67.875510
 10
58.481900
 20
67.955390
 10
58.450800
 20
68.025010
 10
58.409900
 20
68.088320
 10
58.357300
 20
68.150260
 10
58.292900
 20
68.210820
 10
58.216800
 20
68.270010
 10
58.192800
 20
68.273010
 10
58.168800
 20
68.282000
 10
58.145800
 20
68.296760
 10
58.122800
 20
68.317010
 10
57.783300
 20
68.526810
 10
57.746800
 20
68.551015
 10
57.713600
 20
68.587514
 10
57.684800
 20
68.627003
 10
57.660600
 20
68.669514
 10
57.640800
 20
68.715001
 10
57.625500
 20
68.764882
 10
57.614600
 20
68.820500
 10
57.608000
 20
68.881886
 10
57.605800
 20
68.949010
 10
57.619000
 20
69.081944
 10
57.658600
 20
69.198750
 10
57.724500
 20
69.299443
 10
57.816800
 20
69.384007
 10
57.930100
 20
69.450505
 10
58.058100
 20
69.498006
 10
58.200600
 20
69.526509
 10
58.357800
 20
69.536000
 10
64.087800
 20
69.536000
 10
64.297300
 20
69.527196
  0
LWPOLYLINE
 90
40
 70
0
 10
89.150120
 20
64.480000
 10
83.053120
 20
53.856000
 10
77.845400
 20
53.879800
 10
77.527900
 20
53.885800
 10
77.400100
 20
53.891000
 10
77.290400
 20
53.899200
 10
77.195100
 20
53.911800
 10
77.114400
 20
53.928700
 10
77.048100
 20
53.950000
 10
76.968300
 20
53.981600
 10
76.892600
 20
54.029300
 10
76.821300
 20
54.093100
 10
76.754100
 20
54.173000
 10
76.697700
 20
54.263300
 10
76.657400
 20
54.358000
 10
76.633200
 20
54.457300
 10
76.625100
 20
54.561000
 10
76.631800
 20
54.652800
 10
76.651600
 20
54.740300
 10
76.684700
 20
54.823300
 10
76.731100
 20
54.902000
 10
76.787800
 20
54.970000
 10
76.851600
 20
55.022000
 10
76.922800
 20
55.058000
 10
77.001100
 20
55.078000
 10
77.424100
 20
55.263000
 10
77.535900
 20
55.309300
 10
77.635100
 20
55.356000
 10
77.682100
 20
55.381900
 10
77.729100
 20
55.413500
 10
77.776100
 20
55.450900
 10
77.823100
 20
55.494000
 10
77.870900
 20
55.544100
 10
77.920100
 20
55.601500
 10
77.970900
 20
55.666100
 10
78.137900
 20
55.902500
 10
78.270100
 20
56.096000
 10
86.031120
 20
69.536000
 10
89.150120
 20
69.536000
 10
89.150120
 20
64.480000
  0
LWPOLYLINE
 90
40
 70
0
 10
115.631200
 20
64.480000
 10
109.534200
 20
53.856000
 10
104.326500
 20
53.879800
 10
104.009000
 20
53.885800
 10
103.881200
 20
53.891000
 10
103.771500
 20
53.899200
 10
103.676200
 20
53.911800
 10
103.595500
 20
53.928700
 10
103.529200
 20
53.950000
 10
103.449300
 20
53.981600
 10
103.373700
 20
54.029300
 10
103.302300
 20
54.093100
 10
103.235200
 20
54.173000
 10
103.178800
 20
54.263300
 10
103.138500
 20
54.358000
 10
103.114300
 20
54.457300
 10
103.106200
 20
54.561000
 10
103.112800
 20
54.652800
 10
103.132700
 20
54.740300
 10
103.165800
 20
54.823300
 10
103.212200
 20
54.902000
 10
103.268800
 20
54.970000
 10
103.332700
 20
55.022000
 10
103.403800
 20
55.058000
 10
103.482200
 20
55.078000
 10
103.905200
 20
55.263000
 10
104.017000
 20
55.309300
 10
104.116200
 20
55.356000
 10
104.163200
 20
55.381900
 10
104.210200
 20
55.413500
 10
104.257200
 20
55.450900
 10
104.304200
 20
55.494000
 10
104.352000
 20
55.544100
 10
104.401200
 20
55.601500
 10
104.452000
 20
55.666100
 10
104.619000
 20
55.902500
 10
104.751200
 20
56.096000
 10
112.512200
 20
69.536000
 10
115.631200
 20
69.536000
 10
115.631200
 20
64.480000
  0
LWPOLYLINE
 90
64
 70
0
 10
115.631200
 20
57.438000
 10
115.648800
 20
57.032700
 10
115.701700
 20
56.665800
 10
115.789800
 20
56.337200
 10
115.913200
 20
56.047000
 10
116.071800
 20
55.790300
 10
116.265700
 20
55.563300
 10
116.494800
 20
55.365800
 10
116.759200
 20
55.198000
 10
117.075200
 20
55.033000
 10
117.136500
 20
54.997500
 10
117.190200
 20
54.962000
 10
117.236500
 20
54.926500
 10
117.275200
 20
54.891000
 10
117.307700
 20
54.844800
 10
117.334200
 20
54.800000
 10
117.354700
 20
54.756800
 10
117.369200
 20
54.715000
 10
117.379700
 20
54.671300
 10
117.387200
 20
54.623300
 10
117.391700
 20
54.570800
 10
117.393200
 20
54.514000
 10
117.379200
 20
54.360500
 10
117.337200
 20
54.229000
 10
117.267200
 20
54.119500
 10
117.169200
 20
54.032000
 10
117.040800
 20
53.963600
 10
116.878700
 20
53.911500
 10
116.682800
 20
53.875600
 10
116.453200
 20
53.856000
 10
113.588200
 20
53.879000
 10
113.380200
 20
53.887800
 10
113.203000
 20
53.914300
 10
113.056600
 20
53.958300
 10
112.941200
 20
54.020000
 10
112.854200
 20
54.100800
 10
112.792000
 20
54.202300
 10
112.754600
 20
54.324300
 10
112.742200
 20
54.467000
 10
112.746600
 20
54.567100
 10
112.759700
 20
54.655500
 10
112.781600
 20
54.732100
 10
112.812200
 20
54.797000
 10
112.853500
 20
54.854500
 10
112.906500
 20
54.909000
 10
112.971000
 20
54.960500
 10
113.047200
 20
55.009000
 10
113.059900
 20
55.020300
 10
113.089400
 20
55.038300
 10
113.123000
 20
55.051300
 10
113.138500
 20
55.059300
 10
113.152500
 20
55.068800
 10
113.165200
 20
55.080000
 10
113.490800
 20
55.267300
 10
113.763700
 20
55.475300
 10
113.983800
 20
55.703800
 10
114.151200
 20
55.953000
 10
114.274600
 20
56.238600
 10
114.362700
 20
56.577300
 10
114.415600
 20
56.969100
 10
114.433200
 20
57.414000
 10
114.433200
 20
60.597000
 10
115.631200
 20
62.648010
 10
115.631200
 20
57.438000
  0
LWPOLYLINE
 90
62
 70
0
 10
148.227600
 20
53.856000
 10
143.107600
 20
53.856000
 10
142.802600
 20
53.879000
 10
142.603600
 20
53.888600
 10
142.429600
 20
53.917300
 10
142.280600
 20
53.965100
 10
142.156600
 20
54.032000
 10
142.059000
 20
54.119500
 10
141.989400
 20
54.229000
 10
141.947500
 20
54.360500
 10
141.933600
 20
54.514000
 10
141.940900
 20
54.616300
 10
141.962900
 20
54.711300
 10
141.999400
 20
54.798800
 10
142.050600
 20
54.879000
 10
142.116500
 20
54.949900
 10
142.197100
 20
55.010800
 10
142.292500
 20
55.061500
 10
142.402600
 20
55.102000
 10
142.493600
 20
55.128300
 10
142.536900
 20
55.143800
 10
142.658300
 20
55.193000
 10
142.731600
 20
55.219000
 10
142.848200
 20
55.279400
 10
142.939900
 20
55.342800
 10
143.006700
 20
55.408900
 10
143.048600
 20
55.478000
 10
143.074400
 20
55.560300
 10
143.092900
 20
55.666000
 10
143.103900
 20
55.795300
 10
143.107600
 20
55.948000
 10
143.107600
 20
67.468010
 10
143.103900
 20
67.631260
 10
143.092900
 20
67.768010
 10
143.074400
 20
67.878250
 10
143.048600
 20
67.962010
 10
143.006700
 20
68.031010
 10
142.939900
 20
68.097000
 10
142.848200
 20
68.160010
 10
142.731600
 20
68.220010
 10
142.619300
 20
68.262200
 10
142.536900
 20
68.295830
 10
142.448900
 20
68.325320
 10
142.402600
 20
68.338000
 10
142.292500
 20
68.378190
 10
142.197100
 20
68.428760
 10
142.116500
 20
68.489690
 10
142.050600
 20
68.561009
 10
141.999400
 20
68.641133
 10
141.962900
 20
68.728505
 10
141.940900
 20
68.823140
 10
141.933600
 20
68.925008
 10
141.946800
 20
69.068013
 10
141.986400
 20
69.192006
 10
142.052300
 20
69.297002
 10
142.144600
 20
69.383000
 10
142.264900
 20
69.449940
 10
142.414600
 20
69.497761
 10
142.593900
 20
69.526448
 10
142.802600
 20
69.536000
 10
148.227600
 20
69.536000
 10
148.227600
 20
53.856000
  0
LWPOLYLINE
 90
33
 70
0
 10
153.414500
 20
58.637800
 10
153.534400
 20
58.607000
 10
153.632000
 20
58.555800
 10
153.707600
 20
58.484000
 10
153.764000
 20
58.388300
 10
153.804400
 20
58.266300
 10
153.828500
 20
58.117800
 10
153.836600
 20
57.943000
 10
153.836600
 20
53.856000
 10
149.185600
 20
53.856000
 10
149.185600
 20
55.242000
 10
149.824200
 20
55.347000
 10
150.401100
 20
55.521000
 10
150.916200
 20
55.764000
 10
151.369600
 20
56.076000
 10
151.767700
 20
56.464300
 10
152.115900
 20
56.936300
 10
152.414200
 20
57.491800
 10
152.662600
 20
58.131000
 10
152.665400
 20
58.157800
 10
152.673600
 20
58.190000
 10
152.688600
 20
58.222300
 10
152.698400
 20
58.236300
 10
152.709600
 20
58.249000
 10
152.757600
 20
58.356900
 10
152.808600
 20
58.445800
 10
152.862600
 20
58.515400
 10
152.919600
 20
58.566000
 10
152.985900
 20
58.601900
 10
153.066900
 20
58.627500
 10
153.162400
 20
58.642900
 10
153.272600
 20
58.648000
 10
153.414500
 20
58.637800
  0
LWPOLYLINE
 90
178
 70
0
 10
12.158200
 20
69.832936
 10
12.451000
 20
69.808736
 10
12.727700
 20
69.768437
 10
12.988200
 20
69.711995
 10
13.234100
 20
69.640874
 10
13.466700
 20
69.556493
 10
13.686100
 20
69.458882
 10
13.892200
 20
69.348012
 10
14.041800
 20
69.239125
 10
14.185500
 20
69.124501
 10
14.323300
 20
69.004140
 10
14.455200
 20
68.878010
 10
14.581700
 20
68.747075
 10
14.702200
 20
68.613255
 10
14.816700
 20
68.476570
 10
14.925200
 20
68.337010
 10
15.014100
 20
68.207570
 10
15.092700
 20
68.078250
 10
15.161100
 20
67.949070
 10
15.219200
 20
67.820010
 10
15.265600
 20
67.694950
 10
15.298700
 20
67.578760
 10
15.318600
 20
67.471440
 10
15.325200
 20
67.373010
 10
15.325200
 20
67.327000
 10
15.323700
 20
67.313570
 10
15.311700
 20
67.278070
 10
15.301200
 20
67.256000
 10
15.283000
 20
67.186250
 10
15.251500
 20
67.118000
 10
15.206500
 20
67.051260
 10
15.148200
 20
66.986010
 10
15.083000
 20
66.924700
 10
15.016500
 20
66.870760
 10
14.948500
 20
66.824190
 10
14.879200
 20
66.785010
 10
14.835000
 20
66.782260
 10
14.796200
 20
66.774010
 10
14.764200
 20
66.765000
 10
14.738200
 20
66.762010
 10
14.702700
 20
66.763510
 10
14.667200
 20
66.768010
 10
14.631700
 20
66.775500
 10
14.596200
 20
66.786000
 10
14.561200
 20
66.799000
 10
14.526200
 20
66.815010
 10
14.491200
 20
66.834000
 10
14.456200
 20
66.856010
 10
14.410700
 20
66.881000
 10
14.368000
 20
66.909000
 10
14.328100
 20
66.940010
 10
14.291200
 20
66.974000
 10
14.150200
 20
67.115010
 10
14.033200
 20
67.268010
 10
14.009700
 20
67.294880
 10
13.986200
 20
67.317510
 10
13.962700
 20
67.335880
 10
13.939200
 20
67.350010
 10
13.915500
 20
67.353000
 10
13.879200
 20
67.366830
 10
13.844200
 20
67.372320
 10
13.822200
 20
67.373010
 10
13.766900
 20
67.367130
 10
13.719000
 20
67.349510
 10
13.678400
 20
67.320130
 10
13.645200
 20
67.279010
 10
13.619800
 20
67.226140
 10
13.601700
 20
67.161500
 10
13.590800
 20
67.085130
 10
13.587200
 20
66.997010
 10
13.587200
 20
64.646000
 10
13.566600
 20
64.344880
 10
13.504700
 20
64.052510
 10
13.401600
 20
63.768880
 10
13.257200
 20
63.494010
 10
13.076500
 20
63.235330
 10
12.863200
 20
63.000260
 10
12.617500
 20
62.788820
 10
12.339200
 20
62.601000
 10
12.292200
 20
62.574250
 10
12.198200
 20
62.509750
 10
12.151200
 20
62.483010
 10
11.961300
 20
62.392690
 10
11.768500
 20
62.309760
 10
11.572800
 20
62.234200
 10
11.374200
 20
62.166000
 10
11.156500
 20
62.102190
 10
10.903500
 20
62.039750
 10
10.615000
 20
61.978690
 10
10.291200
 20
61.919010
 10
10.197200
 20
61.916000
 10
10.103200
 20
61.907000
 10
10.009200
 20
61.892260
 10
9.915200
 20
61.872010
 10
10.120200
 20
61.813820
 10
10.312000
 20
61.757250
 10
10.490700
 20
61.702320
 10
10.656200
 20
61.649010
 10
10.811500
 20
61.595270
 10
10.959500
 20
61.540010
 10
11.100000
 20
61.483250
 10
11.233200
 20
61.425010
 10
11.403800
 20
61.354510
 10
11.562700
 20
61.284000
 10
11.709800
 20
61.213510
 10
11.845200
 20
61.143010
 10
11.973200
 20
61.069570
 10
12.098200
 20
60.990250
 10
12.220200
 20
60.905060
 10
12.339200
 20
60.814020
 10
12.386200
 20
60.767000
 10
12.674500
 20
60.512880
 10
12.927500
 20
60.220510
 10
13.145000
 20
59.889880
 10
13.327200
 20
59.521000
 10
13.471600
 20
59.127100
 10
13.574700
 20
58.721500
 10
13.636600
 20
58.304100
 10
13.657200
 20
57.875000
 10
13.628500
 20
57.360000
 10
13.542500
 20
56.873000
 10
13.399000
 20
56.414000
 10
13.198200
 20
55.983000
 10
12.940400
 20
55.585400
 10
12.625000
 20
55.227500
 10
12.251900
 20
54.909400
 10
11.748000
 20
54.584000
 10
11.668200
 20
54.537000
 10
11.626500
 20
54.515000
 10
11.583200
 20
54.496000
 10
11.538500
 20
54.480000
 10
11.492200
 20
54.467000
 10
11.153100
 20
54.305300
 10
10.794700
 20
54.173000
 10
10.417100
 20
54.070300
 10
10.020200
 20
53.997000
 10
9.564900
 20
53.943900
 10
9.011000
 20
53.902800
 10
8.358400
 20
53.873400
 10
7.607200
 20
53.856000
 10
7.325200
 20
53.856000
 10
7.325200
 20
55.153000
 10
7.674000
 20
55.277600
 10
7.960500
 20
55.415500
 10
8.184500
 20
55.566600
 10
8.346200
 20
55.731000
 10
8.460800
 20
55.924400
 10
8.542700
 20
56.163800
 10
8.591800
 20
56.448900
 10
8.608200
 20
56.780000
 10
8.608200
 20
59.845010
 10
8.590400
 20
60.207510
 10
8.537000
 20
60.517000
 10
8.447900
 20
60.773500
 10
8.323200
 20
60.977010
 10
8.154000
 20
61.135880
 10
7.931200
 20
61.259510
 10
7.655000
 20
61.347890
 10
7.325200
 20
61.401010
 10
7.325200
 20
62.624010
 10
7.645200
 20
62.684570
 10
7.916200
 20
62.795260
 10
8.138200
 20
62.956070
 10
8.311200
 20
63.167010
 10
8.441200
 20
63.433510
 10
8.534000
 20
63.762010
 10
8.589700
 20
64.152500
 10
8.608200
 20
64.605000
 10
8.608200
 20
66.563010
 10
8.661800
 20
67.297570
 10
8.822500
 20
67.945260
 10
9.090300
 20
68.506080
 10
9.465200
 20
68.980000
 10
9.935600
 20
69.356694
 10
10.489700
 20
69.625737
 10
11.127600
 20
69.787175
 10
11.849200
 20
69.840993
 10
12.158200
 20
69.832936
  0
LWPOLYLINE
 90
33
 70
0
 10
182.744300
 20
58.637800
 10
182.864200
 20
58.607000
 10
182.961800
 20
58.555800
 10
183.037400
 20
58.484000
 10
183.093900
 20
58.388300
 10
183.134200
 20
58.266300
 10
183.158300
 20
58.117800
 10
183.166400
 20
57.943000
 10
183.166400
 20
53.856000
 10
178.515400
 20
53.856000
 10
178.515400
 20
55.242000
 10
179.154000
 20
55.347000
 10
179.730900
 20
55.521000
 10
180.246000
 20
55.764000
 10
180.699400
 20
56.076000
 10
181.097500
 20
56.464300
 10
181.445700
 20
56.936300
 10
181.744000
 20
57.491800
 10
181.992400
 20
58.131000
 10
181.995200
 20
58.157800
 10
182.003400
 20
58.190000
 10
182.018400
 20
58.222300
 10
182.028200
 20
58.236300
 10
182.039400
 20
58.249000
 10
182.087400
 20
58.356900
 10
182.138400
 20
58.445800
 10
182.192400
 20
58.515400
 10
182.249400
 20
58.566000
 10
182.315700
 20
58.601900
 10
182.396700
 20
58.627500
 10
182.492200
 20
58.642900
 10
182.602400
 20
58.648000
 10
182.744300
 20
58.637800
  0
LWPOLYLINE
 90
64
 70
0
 10
89.150120
 20
57.438000
 10
89.167750
 20
57.032700
 10
89.220620
 20
56.665800
 10
89.308760
 20
56.337200
 10
89.432120
 20
56.047000
 10
89.590750
 20
55.790300
 10
89.784630
 20
55.563300
 10
90.013760
 20
55.365800
 10
90.278130
 20
55.198000
 10
90.594130
 20
55.033000
 10
90.655370
 20
54.997500
 10
90.709130
 20
54.962000
 10
90.755380
 20
54.926500
 10
90.794120
 20
54.891000
 10
90.826620
 20
54.844800
 10
90.853130
 20
54.800000
 10
90.873640
 20
54.756800
 10
90.888130
 20
54.715000
 10
90.898630
 20
54.671300
 10
90.906120
 20
54.623300
 10
90.910620
 20
54.570800
 10
90.912130
 20
54.514000
 10
90.898130
 20
54.360500
 10
90.856130
 20
54.229000
 10
90.786130
 20
54.119500
 10
90.688130
 20
54.032000
 10
90.559750
 20
53.963600
 10
90.397620
 20
53.911500
 10
90.201760
 20
53.875600
 10
89.972130
 20
53.856000
 10
87.107130
 20
53.879000
 10
86.899070
 20
53.887800
 10
86.721870
 20
53.914300
 10
86.575570
 20
53.958300
 10
86.460120
 20
54.020000
 10
86.373070
 20
54.100800
 10
86.310880
 20
54.202300
 10
86.273570
 20
54.324300
 10
86.261130
 20
54.467000
 10
86.265500
 20
54.567100
 10
86.278630
 20
54.655500
 10
86.300500
 20
54.732100
 10
86.331120
 20
54.797000
 10
86.372450
 20
54.854500
 10
86.425380
 20
54.909000
 10
86.489940
 20
54.960500
 10
86.566130
 20
55.009000
 10
86.578820
 20
55.020300
 10
86.608320
 20
55.038300
 10
86.641950
 20
55.051300
 10
86.657370
 20
55.059300
 10
86.671440
 20
55.068800
 10
86.684120
 20
55.080000
 10
87.009760
 20
55.267300
 10
87.282630
 20
55.475300
 10
87.502760
 20
55.703800
 10
87.670130
 20
55.953000
 10
87.793500
 20
56.238600
 10
87.881630
 20
56.577300
 10
87.934500
 20
56.969100
 10
87.952130
 20
57.414000
 10
87.952130
 20
60.597000
 10
89.150120
 20
62.648010
 10
89.150120
 20
57.438000
  0
LWPOLYLINE
 90
63
 70
0
 10
54.469800
 20
69.527196
 10
54.636600
 20
69.500752
 10
54.781200
 20
69.456700
 10
54.903800
 20
69.395009
 10
55.001400
 20
69.317189
 10
55.071100
 20
69.224751
 10
55.112900
 20
69.117696
 10
55.126800
 20
68.996007
 10
55.120100
 20
68.904195
 10
55.099800
 20
68.816762
 10
55.066100
 20
68.733693
 10
55.018800
 20
68.655003
 10
54.960100
 20
68.580754
 10
54.890800
 20
68.511010
 10
54.811100
 20
68.445760
 10
54.720800
 20
68.385010
 10
54.337800
 20
68.221010
 10
54.180500
 20
68.142450
 10
54.042600
 20
68.047760
 10
53.924000
 20
67.936940
 10
53.824800
 20
67.810000
 10
53.746900
 20
67.671310
 10
53.691300
 20
67.525260
 10
53.657900
 20
67.371820
 10
53.646800
 20
67.211000
 10
53.646800
 20
67.058000
 10
53.648200
 20
67.017690
 10
53.652600
 20
66.978760
 10
53.659700
 20
66.941200
 10
53.669800
 20
66.905000
 10
53.672800
 20
66.832010
 10
53.681800
 20
66.753010
 10
53.696600
 20
66.667500
 10
53.716800
 20
66.577000
 10
55.760800
 20
59.178000
 10
55.173800
 20
56.806000
 10
52.597800
 20
66.271000
 10
52.474700
 20
66.688130
 10
52.338600
 20
67.046510
 10
52.189200
 20
67.346130
 10
52.026800
 20
67.587010
 10
51.833700
 20
67.792200
 10
51.592600
 20
67.985750
 10
51.303200
 20
68.167700
 10
50.965800
 20
68.338000
 10
50.836000
 20
68.398010
 10
50.726600
 20
68.461000
 10
50.637500
 20
68.527010
 10
50.568800
 20
68.596013
 10
50.518100
 20
68.669438
 10
50.481800
 20
68.748753
 10
50.460100
 20
68.833943
 10
50.452800
 20
68.925008
 10
50.468900
 20
69.058690
 10
50.517300
 20
69.177754
 10
50.597900
 20
69.282201
 10
50.710800
 20
69.372014
 10
50.849100
 20
69.443761
 10
51.004800
 20
69.495015
 10
51.178100
 20
69.525761
 10
51.368800
 20
69.536000
 10
54.280800
 20
69.536000
 10
54.469800
 20
69.527196
  0
LWPOLYLINE
 90
60
 70
0
 10
80.493300
 20
69.527943
 10
80.703900
 20
69.503758
 10
80.874800
 20
69.463444
 10
81.006100
 20
69.407002
 10
81.103700
 20
69.331074
 10
81.173400
 20
69.233250
 10
81.215200
 20
69.113576
 10
81.229100
 20
68.972005
 10
81.224700
 20
68.892201
 10
81.211400
 20
68.816762
 10
81.189200
 20
68.745702
 10
81.158100
 20
68.679005
 10
81.117300
 20
68.614827
 10
81.064600
 20
68.552251
 10
81.000300
 20
68.491320
 10
80.924100
 20
68.432010
 10
80.595100
 20
68.267000
 10
80.321400
 20
68.090260
 10
80.087400
 20
67.890000
 10
79.892900
 20
67.666260
 10
79.738100
 20
67.419010
 10
79.620000
 20
67.140890
 10
79.535600
 20
66.824510
 10
79.485000
 20
66.469880
 10
79.468100
 20
66.077000
 10
79.468100
 20
59.907000
 10
78.270100
 20
57.858000
 10
78.270100
 20
66.101000
 10
78.253200
 20
66.485330
 10
78.202400
 20
66.837250
 10
78.117700
 20
67.156820
 10
77.999100
 20
67.444000
 10
77.845800
 20
67.701310
 10
77.655900
 20
67.932260
 10
77.429300
 20
68.136810
 10
77.166100
 20
68.315010
 10
76.995600
 20
68.423510
 10
76.860100
 20
68.515000
 10
76.804500
 20
68.555257
 10
76.754600
 20
68.594014
 10
76.710500
 20
68.631261
 10
76.672100
 20
68.667012
 10
76.650100
 20
68.692006
 10
76.631100
 20
68.720006
 10
76.615100
 20
68.751012
 10
76.602100
 20
68.785008
 10
76.592100
 20
68.821507
 10
76.584900
 20
68.861012
 10
76.580600
 20
68.903508
 10
76.579100
 20
68.949010
 10
76.595300
 20
69.091252
 10
76.643600
 20
69.213002
 10
76.724300
 20
69.314259
 10
76.837100
 20
69.395009
 10
76.982300
 20
69.456700
 10
77.159900
 20
69.500752
 10
77.369800
 20
69.527196
 10
77.612100
 20
69.536000
 10
80.243100
 20
69.536000
 10
80.493300
 20
69.527943
  0
LWPOLYLINE
 90
60
 70
0
 10
106.974400
 20
69.527943
 10
107.185000
 20
69.503758
 10
107.355900
 20
69.463444
 10
107.487200
 20
69.407002
 10
107.584800
 20
69.331074
 10
107.654500
 20
69.233250
 10
107.696300
 20
69.113576
 10
107.710200
 20
68.972005
 10
107.705800
 20
68.892201
 10
107.692500
 20
68.816762
 10
107.670300
 20
68.745702
 10
107.639200
 20
68.679005
 10
107.598300
 20
68.614827
 10
107.545700
 20
68.552251
 10
107.481300
 20
68.491320
 10
107.405200
 20
68.432010
 10
107.076200
 20
68.267000
 10
106.802500
 20
68.090260
 10
106.568500
 20
67.890000
 10
106.374000
 20
67.666260
 10
106.219200
 20
67.419010
 10
106.101100
 20
67.140890
 10
106.016700
 20
66.824510
 10
105.966100
 20
66.469880
 10
105.949200
 20
66.077000
 10
105.949200
 20
59.907000
 10
104.751200
 20
57.858000
 10
104.751200
 20
66.101000
 10
104.734300
 20
66.485330
 10
104.683500
 20
66.837250
 10
104.598800
 20
67.156820
 10
104.480200
 20
67.444000
 10
104.326900
 20
67.701310
 10
104.137000
 20
67.932260
 10
103.910400
 20
68.136810
 10
103.647200
 20
68.315010
 10
103.476700
 20
68.423510
 10
103.341200
 20
68.515000
 10
103.285600
 20
68.555257
 10
103.235700
 20
68.594014
 10
103.191600
 20
68.631261
 10
103.153200
 20
68.667012
 10
103.131200
 20
68.692006
 10
103.112200
 20
68.720006
 10
103.096200
 20
68.751012
 10
103.083200
 20
68.785008
 10
103.073100
 20
68.821507
 10
103.066000
 20
68.861012
 10
103.061600
 20
68.903508
 10
103.060200
 20
68.949010
 10
103.076300
 20
69.091252
 10
103.124700
 20
69.213002
 10
103.205300
 20
69.314259
 10
103.318200
 20
69.395009
 10
103.463400
 20
69.456700
 10
103.641000
 20
69.500752
 10
103.850900
 20
69.527196
 10
104.093200
 20
69.536000
 10
106.724200
 20
69.536000
 10
106.974400
 20
69.527943
  0
LWPOLYLINE
 90
51
 70
0
 10
151.452900
 20
64.693580
 10
151.577600
 20
64.656250
 10
151.675900
 20
64.594070
 10
151.747600
 20
64.507010
 10
151.799200
 20
64.384250
 10
151.836100
 20
64.216010
 10
151.858200
 20
64.002260
 10
151.865600
 20
63.743000
 10
151.865600
 20
59.422000
 10
151.858200
 20
59.162800
 10
151.836100
 20
58.949300
 10
151.799200
 20
58.781300
 10
151.747600
 20
58.659000
 10
151.675900
 20
58.571500
 10
151.577600
 20
58.509000
 10
151.452900
 20
58.471500
 10
151.301600
 20
58.459000
 10
151.159700
 20
58.469300
 10
151.039800
 20
58.500000
 10
150.942200
 20
58.551300
 10
150.866600
 20
58.623000
 10
150.802800
 20
58.722700
 10
150.740400
 20
58.857800
 10
150.679300
 20
59.028200
 10
150.619600
 20
59.234000
 10
150.538000
 20
59.534100
 10
150.434400
 20
59.800510
 10
150.308500
 20
60.033130
 10
150.160600
 20
60.232010
 10
149.980800
 20
60.410310
 10
149.758400
 20
60.581260
 10
149.493300
 20
60.744820
 10
149.185600
 20
60.901010
 10
149.185600
 20
62.240010
 10
149.454400
 20
62.328130
 10
149.696600
 20
62.451510
 10
149.912400
 20
62.610130
 10
150.101600
 20
62.804010
 10
150.267900
 20
63.038560
 10
150.413600
 20
63.320260
 10
150.538900
 20
63.649070
 10
150.643600
 20
64.025010
 10
150.703600
 20
64.199070
 10
150.766600
 20
64.345270
 10
150.832600
 20
64.463570
 10
150.901600
 20
64.554010
 10
150.979500
 20
64.620500
 10
151.072100
 20
64.668000
 10
151.179500
 20
64.696510
 10
151.301600
 20
64.706010
 10
151.452900
 20
64.693580
  0
LWPOLYLINE
 90
51
 70
0
 10
26.972300
 20
64.693580
 10
27.097100
 20
64.656250
 10
27.195300
 20
64.594070
 10
27.267100
 20
64.507010
 10
27.318700
 20
64.384250
 10
27.355600
 20
64.216010
 10
27.377700
 20
64.002260
 10
27.385100
 20
63.743000
 10
27.385100
 20
59.422000
 10
27.377700
 20
59.162800
 10
27.355600
 20
58.949300
 10
27.318700
 20
58.781300
 10
27.267100
 20
58.659000
 10
27.195300
 20
58.571500
 10
27.097100
 20
58.509000
 10
26.972300
 20
58.471500
 10
26.821100
 20
58.459000
 10
26.679100
 20
58.469300
 10
26.559300
 20
58.500000
 10
26.461600
 20
58.551300
 10
26.386100
 20
58.623000
 10
26.322300
 20
58.722700
 10
26.259800
 20
58.857800
 10
26.198800
 20
59.028200
 10
26.139100
 20
59.234000
 10
26.057500
 20
59.534100
 10
25.953800
 20
59.800510
 10
25.828000
 20
60.033130
 10
25.680100
 20
60.232010
 10
25.500300
 20
60.410310
 10
25.277800
 20
60.581260
 10
25.012800
 20
60.744820
 10
24.705100
 20
60.901010
 10
24.705100
 20
62.240010
 10
24.973800
 20
62.328130
 10
25.216100
 20
62.451510
 10
25.431800
 20
62.610130
 10
25.621100
 20
62.804010
 10
25.787300
 20
63.038560
 10
25.933100
 20
63.320260
 10
26.058300
 20
63.649070
 10
26.163100
 20
64.025010
 10
26.223100
 20
64.199070
 10
26.286100
 20
64.345270
 10
26.352100
 20
64.463570
 10
26.421100
 20
64.554010
 10
26.498900
 20
64.620500
 10
26.591600
 20
64.668000
 10
26.699000
 20
64.696510
 10
26.821100
 20
64.706010
 10
26.972300
 20
64.693580
  0
LWPOLYLINE
 90
51
 70
0
 10
180.782700
 20
64.693580
 10
180.907400
 20
64.656250
 10
181.005700
 20
64.594070
 10
181.077400
 20
64.507010
 10
181.129000
 20
64.384250
 10
181.165900
 20
64.216010
 10
181.188000
 20
64.002260
 10
181.195400
 20
63.743000
 10
181.195400
 20
59.422000
 10
181.188000
 20
59.162800
 10
181.165900
 20
58.949300
 10
181.129000
 20
58.781300
 10
181.077400
 20
58.659000
 10
181.005700
 20
58.571500
 10
180.907400
 20
58.509000
 10
180.782700
 20
58.471500
 10
180.631400
 20
58.459000
 10
180.489500
 20
58.469300
 10
180.369700
 20
58.500000
 10
180.272000
 20
58.551300
 10
180.196400
 20
58.623000
 10
180.132600
 20
58.722700
 10
180.070200
 20
58.857800
 10
180.009100
 20
59.028200
 10
179.949400
 20
59.234000
 10
179.867900
 20
59.534100
 10
179.764200
 20
59.800510
 10
179.638300
 20
60.033130
 10
179.490400
 20
60.232010
 10
179.310600
 20
60.410310
 10
179.088200
 20
60.581260
 10
178.823100
 20
60.744820
 10
178.515400
 20
60.901010
 10
178.515400
 20
62.240010
 10
178.784200
 20
62.328130
 10
179.026400
 20
62.451510
 10
179.242200
 20
62.610130
 10
179.431400
 20
62.804010
 10
179.597700
 20
63.038560
 10
179.743400
 20
63.320260
 10
179.868700
 20
63.649070
 10
179.973400
 20
64.025010
 10
180.033400
 20
64.199070
 10
180.096400
 20
64.345270
 10
180.162400
 20
64.463570
 10
180.231400
 20
64.554010
 10
180.309300
 20
64.620500
 10
180.401900
 20
64.668000
 10
180.509300
 20
64.696510
 10
180.631400
 20
64.706010
 10
180.782700
 20
64.693580
  0
LWPOLYLINE
 90
55
 70
0
 10
35.841600
 20
69.527943
 10
36.015300
 20
69.503758
 10
36.164100
 20
69.463444
 10
36.288000
 20
69.407002
 10
36.386100
 20
69.332951
 10
36.456000
 20
69.239751
 10
36.498100
 20
69.127446
 10
36.512000
 20
68.996007
 10
36.505400
 20
68.904942
 10
36.485500
 20
68.819752
 10
36.452400
 20
68.740453
 10
36.406000
 20
68.667012
 10
36.345000
 20
68.595067
 10
36.267800
 20
68.520250
 10
36.174500
 20
68.442570
 10
36.065100
 20
68.362000
 10
35.643000
 20
68.127000
 10
35.424200
 20
67.963830
 10
35.237500
 20
67.780260
 10
35.083200
 20
67.576310
 10
34.961100
 20
67.352010
 10
34.868700
 20
67.096440
 10
34.802800
 20
66.799760
 10
34.763200
 20
66.461950
 10
34.750100
 20
66.083010
 10
34.750100
 20
62.631000
 10
33.552100
 20
59.154000
 10
33.552100
 20
66.107010
 10
33.533000
 20
66.513450
 10
33.475800
 20
66.887760
 10
33.380500
 20
67.229940
 10
33.247000
 20
67.540010
 10
33.072500
 20
67.818820
 10
32.853800
 20
68.068260
 10
32.591000
 20
68.288320
 10
32.127200
 20
68.577824
 10
32.086200
 20
68.607320
 10
32.029100
 20
68.655827
 10
31.993300
 20
68.693257
 10
31.964600
 20
68.732320
 10
31.943000
 20
68.773015
 10
31.927700
 20
68.816197
 10
31.916800
 20
68.863759
 10
31.910200
 20
68.915700
 10
31.908000
 20
68.972005
 10
31.922000
 20
69.113576
 10
31.963800
 20
69.233250
 10
32.033500
 20
69.331074
 10
32.131100
 20
69.407002
 10
32.255000
 20
69.463444
 10
32.404000
 20
69.503758
 10
32.578000
 20
69.527943
 10
32.777000
 20
69.536000
 10
35.643000
 20
69.536000
 10
35.841600
 20
69.527943
  0
LWPOLYLINE
 90
97
 70
0
 10
126.812100
 20
69.836369
 10
127.195100
 20
69.800496
 10
127.575100
 20
69.748372
 10
127.952100
 20
69.679997
 10
128.323700
 20
69.593999
 10
128.686600
 20
69.489003
 10
129.040700
 20
69.365010
 10
129.386100
 20
69.222005
 10
129.553100
 20
69.145253
 10
129.726100
 20
69.057011
 10
129.996800
 20
68.916005
 10
130.090100
 20
68.869008
 10
130.374800
 20
68.698262
 10
130.665100
 20
68.516010
 10
130.809900
 20
68.422000
 10
130.950300
 20
68.328010
 10
131.086400
 20
68.234010
 10
131.299400
 20
68.080330
 10
131.457900
 20
67.956820
 10
131.535100
 20
67.893010
 10
131.609300
 20
67.827320
 10
131.679100
 20
67.760260
 10
131.744300
 20
67.691820
 10
131.805100
 20
67.622010
 10
131.805100
 20
63.741000
 10
131.807300
 20
63.597570
 10
131.813800
 20
63.473260
 10
131.824800
 20
63.368080
 10
131.840100
 20
63.282000
 10
131.865700
 20
63.209200
 10
131.907600
 20
63.143760
 10
131.965700
 20
63.085700
 10
132.040100
 20
63.035010
 10
132.099500
 20
62.976060
 10
132.135000
 20
62.952560
 10
132.157100
 20
62.941010
 10
132.222100
 20
62.894000
 10
132.298600
 20
62.824940
 10
132.322100
 20
62.805760
 10
132.345600
 20
62.789450
 10
132.369100
 20
62.776010
 10
132.413100
 20
62.717440
 10
132.451100
 20
62.658760
 10
132.483100
 20
62.599950
 10
132.509100
 20
62.541000
 10
132.529600
 20
62.480560
 10
132.544300
 20
62.417260
 10
132.553100
 20
62.351060
 10
132.556100
 20
62.282000
 10
132.542900
 20
62.108690
 10
132.503300
 20
61.964760
 10
132.437400
 20
61.850190
 10
132.345100
 20
61.765000
 10
132.219000
 20
61.701820
 10
132.051800
 20
61.653260
 10
131.843500
 20
61.619310
 10
131.594100
 20
61.600010
 10
126.975100
 20
61.600010
 10
126.725000
 20
61.609560
 10
126.509800
 20
61.638260
 10
126.329500
 20
61.686070
 10
126.184100
 20
61.753010
 10
126.072500
 20
61.840080
 10
125.992800
 20
61.949250
 10
125.945000
 20
62.080570
 10
125.929100
 20
62.234010
 10
125.938200
 20
62.346700
 10
125.965600
 20
62.450760
 10
126.011200
 20
62.546190
 10
126.075100
 20
62.633000
 10
126.155700
 20
62.707690
 10
126.251600
 20
62.767750
 10
126.362700
 20
62.813190
 10
126.580100
 20
62.868000
 10
126.695600
 20
62.902070
 10
126.732100
 20
62.909260
 10
126.768600
 20
62.913560
 10
126.805100
 20
62.915010
 10
126.981300
 20
62.977010
 10
127.121100
 20
63.045000
 10
127.224300
 20
63.119010
 10
127.291100
 20
63.199010
 10
127.334000
 20
63.294820
 10
127.364600
 20
63.417260
 10
127.383000
 20
63.566320
 10
127.389100
 20
63.742010
 10
127.389100
 20
67.146000
 10
127.375800
 20
67.445820
 10
127.336100
 20
67.707260
 10
127.269800
 20
67.930320
 10
127.177100
 20
68.115010
 10
127.051000
 20
68.267200
 10
126.883800
 20
68.392750
 10
126.675500
 20
68.491690
 10
126.426100
 20
68.564015
 10
126.426100
 20
69.855992
 10
126.812100
 20
69.836369
  0
LWPOLYLINE
 90
31
 70
0
 10
154.000600
 20
65.520010
 10
153.992500
 20
65.292880
 10
153.968400
 20
65.105500
 10
153.928000
 20
64.957880
 10
153.871600
 20
64.850010
 10
153.793200
 20
64.773010
 10
153.686900
 20
64.718010
 10
153.552700
 20
64.685000
 10
153.390600
 20
64.674000
 10
153.301700
 20
64.679130
 10
153.223100
 20
64.694510
 10
153.154700
 20
64.720130
 10
153.096600
 20
64.756000
 10
153.042900
 20
64.805130
 10
152.987800
 20
64.870500
 10
152.931400
 20
64.952140
 10
152.873600
 20
65.050010
 10
152.797800
 20
65.203010
 10
152.768300
 20
65.273010
 10
152.755600
 20
65.308000
 10
152.487000
 20
65.949450
 10
152.174400
 20
66.511750
 10
151.817500
 20
66.994940
 10
151.416600
 20
67.399010
 10
150.960300
 20
67.727760
 10
150.436300
 20
67.986010
 10
149.844800
 20
68.173760
 10
149.185600
 20
68.291000
 10
149.185600
 20
69.536000
 10
154.000600
 20
69.536000
 10
154.000600
 20
65.520010
  0
LWPOLYLINE
 90
31
 70
0
 10
29.520100
 20
65.520010
 10
29.512000
 20
65.292880
 10
29.487800
 20
65.105500
 10
29.447500
 20
64.957880
 10
29.391100
 20
64.850010
 10
29.312600
 20
64.773010
 10
29.206300
 20
64.718010
 10
29.072100
 20
64.685000
 10
28.910100
 20
64.674000
 10
28.821200
 20
64.679130
 10
28.742600
 20
64.694510
 10
28.674200
 20
64.720130
 10
28.616100
 20
64.756000
 10
28.562400
 20
64.805130
 10
28.507300
 20
64.870500
 10
28.450900
 20
64.952140
 10
28.393100
 20
65.050010
 10
28.317300
 20
65.203010
 10
28.287800
 20
65.273010
 10
28.275100
 20
65.308000
 10
28.006500
 20
65.949450
 10
27.693800
 20
66.511750
 10
27.337000
 20
66.994940
 10
26.936100
 20
67.399010
 10
26.479800
 20
67.727760
 10
25.955800
 20
67.986010
 10
25.364300
 20
68.173760
 10
24.705100
 20
68.291000
 10
24.705100
 20
69.536000
 10
29.520100
 20
69.536000
 10
29.520100
 20
65.520010
  0
LWPOLYLINE
 90
31
 70
0
 10
183.330400
 20
65.520010
 10
183.322400
 20
65.292880
 10
183.298200
 20
65.105500
 10
183.257900
 20
64.957880
 10
183.201400
 20
64.850010
 10
183.123000
 20
64.773010
 10
183.016700
 20
64.718010
 10
182.882500
 20
64.685000
 10
182.720400
 20
64.674000
 10
182.631500
 20
64.679130
 10
182.552900
 20
64.694510
 10
182.484500
 20
64.720130
 10
182.426400
 20
64.756000
 10
182.372700
 20
64.805130
 10
182.317700
 20
64.870500
 10
182.261200
 20
64.952140
 10
182.203400
 20
65.050010
 10
182.127600
 20
65.203010
 10
182.098100
 20
65.273010
 10
182.085400
 20
65.308000
 10
181.816800
 20
65.949450
 10
181.504200
 20
66.511750
 10
181.147300
 20
66.994940
 10
180.746400
 20
67.399010
 10
180.290100
 20
67.727760
 10
179.766200
 20
67.986010
 10
179.174600
 20
68.173760
 10
178.515400
 20
68.291000
 10
178.515400
 20
69.536000
 10
183.330400
 20
69.536000
 10
183.330400
 20
65.520010
  0
ENDSEC
  0
SECTION
  2
OBJECTS
  0
DICTIONARY
  0
ENDSEC
  0
EOF
  0
EOF
