  0
SECTION
  2
BLOCKS
  0
ENDSEC
  0
SECTION
  2
ENTITIES
  0
LINE
  8
0
 10
60.1675
 20
47.9391
 11
61.874
 21
48.5922
  0
LINE
  8
0
 10
61.874
 20
48.5922
 11
63.369
 21
49.5756
  0
LINE
  8
0
 10
63.369
 20
49.5756
 11
64.6527
 21
50.889
  0
LINE
  8
0
 10
64.6527
 20
50.889
 11
65.6835
 21
52.4757
  0
LINE
  8
0
 10
65.6835
 20
52.4757
 11
66.4197
 21
54.278
  0
LINE
  8
0
 10
66.4197
 20
54.278
 11
66.8615
 21
56.2957
  0
LINE
  8
0
 10
66.8615
 20
56.2957
 11
67.0087
 21
58.529
  0
LINE
  8
0
 10
67.0087
 20
58.529
 11
66.8585
 21
60.7807
  0
LINE
  8
0
 10
66.8585
 20
60.7807
 11
66.408
 21
62.8227
  0
LINE
  8
0
 10
66.408
 20
62.8227
 11
65.657
 21
64.6552
  0
LINE
  8
0
 10
65.657
 20
64.6552
 11
64.6057
 21
66.278
  0
LINE
  8
0
 10
64.6057
 20
66.278
 11
63.3073
 21
67.6205
  0
LINE
  8
0
 10
63.3073
 20
67.6205
 11
61.8152
 21
68.611
  0
LINE
  8
0
 10
61.8152
 20
68.611
 11
60.1293
 21
69.2495
  0
LINE
  8
0
 10
60.1293
 20
69.2495
 11
58.2497
 21
69.536
  0
LINE
  8
0
 10
58.2497
 20
69.536
 11
58.2497
 21
67.825
  0
LINE
  8
0
 10
58.2497
 20
67.825
 11
58.6146
 21
67.6837
  0
LINE
  8
0
 10
58.6146
 20
67.6837
 11
58.9205
 21
67.5127
  0
LINE
  8
0
 10
58.9205
 20
67.5127
 11
59.1671
 21
67.3122
  0
LINE
  8
0
 10
59.1671
 20
67.3122
 11
59.3547
 21
67.082
  0
LINE
  8
0
 10
59.3547
 20
67.082
 11
59.493
 21
66.8122
  0
LINE
  8
0
 10
59.493
 20
66.8122
 11
59.5917
 21
66.493
  0
LINE
  8
0
 10
59.5917
 20
66.493
 11
59.651
 21
66.1242
  0
LINE
  8
0
 10
59.651
 20
66.1242
 11
59.6707
 21
65.706
  0
LINE
  8
0
 10
59.6707
 20
65.706
 11
59.6707
 21
51.857
  0
LINE
  8
0
 10
59.6707
 20
51.857
 11
59.651
 21
51.3076
  0
LINE
  8
0
 10
59.651
 20
51.3076
 11
59.5917
 21
50.8292
  0
LINE
  8
0
 10
59.5917
 20
50.8292
 11
59.493
 21
50.4221
  0
LINE
  8
0
 10
59.493
 20
50.4221
 11
59.3547
 21
50.086
  0
LINE
  8
0
 10
59.3547
 20
50.086
 11
59.1671
 21
49.8132
  0
LINE
  8
0
 10
59.1671
 20
49.8132
 11
58.9205
 21
49.5957
  0
LINE
  8
0
 10
58.9205
 20
49.5957
 11
58.6146
 21
49.4337
  0
LINE
  8
0
 10
58.6146
 20
49.4337
 11
58.2497
 21
49.327
  0
LINE
  8
0
 10
58.2497
 20
49.327
 11
58.2497
 21
47.616
  0
LINE
  8
0
 10
58.2497
 20
47.616
 11
60.1675
 21
47.9391
  0
LINE
  8
0
 10
-59.0143
 20
47.9391
 11
-57.3078
 21
48.5922
  0
LINE
  8
0
 10
-57.3078
 20
48.5922
 11
-55.8128
 21
49.5756
  0
LINE
  8
0
 10
-55.8128
 20
49.5756
 11
-54.5291
 21
50.889
  0
LINE
  8
0
 10
-54.5291
 20
50.889
 11
-53.4983
 21
52.4757
  0
LINE
  8
0
 10
-53.4983
 20
52.4757
 11
-52.7621
 21
54.278
  0
LINE
  8
0
 10
-52.7621
 20
54.278
 11
-52.3203
 21
56.2957
  0
LINE
  8
0
 10
-52.3203
 20
56.2957
 11
-52.1731
 21
58.529
  0
LINE
  8
0
 10
-52.1731
 20
58.529
 11
-52.3233
 21
60.7807
  0
LINE
  8
0
 10
-52.3233
 20
60.7807
 11
-52.7738
 21
62.8227
  0
LINE
  8
0
 10
-52.7738
 20
62.8227
 11
-53.5248
 21
64.6552
  0
LINE
  8
0
 10
-53.5248
 20
64.6552
 11
-54.5761
 21
66.278
  0
LINE
  8
0
 10
-54.5761
 20
66.278
 11
-55.8745
 21
67.6205
  0
LINE
  8
0
 10
-55.8745
 20
67.6205
 11
-57.3666
 21
68.611
  0
LINE
  8
0
 10
-57.3666
 20
68.611
 11
-59.0524
 21
69.2495
  0
LINE
  8
0
 10
-59.0524
 20
69.2495
 11
-60.9321
 21
69.536
  0
LINE
  8
0
 10
-60.9321
 20
69.536
 11
-60.9321
 21
67.825
  0
LINE
  8
0
 10
-60.9321
 20
67.825
 11
-60.5671
 21
67.6837
  0
LINE
  8
0
 10
-60.5671
 20
67.6837
 11
-60.2613
 21
67.5127
  0
LINE
  8
0
 10
-60.2613
 20
67.5127
 11
-60.0146
 21
67.3122
  0
LINE
  8
0
 10
-60.0146
 20
67.3122
 11
-59.8271
 21
67.082
  0
LINE
  8
0
 10
-59.8271
 20
67.082
 11
-59.6888
 21
66.8122
  0
LINE
  8
0
 10
-59.6888
 20
66.8122
 11
-59.5901
 21
66.493
  0
LINE
  8
0
 10
-59.5901
 20
66.493
 11
-59.5308
 21
66.1242
  0
LINE
  8
0
 10
-59.5308
 20
66.1242
 11
-59.5111
 21
65.706
  0
LINE
  8
0
 10
-59.5111
 20
65.706
 11
-59.5111
 21
51.857
  0
LINE
  8
0
 10
-59.5111
 20
51.857
 11
-59.5308
 21
51.3076
  0
LINE
  8
0
 10
-59.5308
 20
51.3076
 11
-59.5901
 21
50.8292
  0
LINE
  8
0
 10
-59.5901
 20
50.8292
 11
-59.6888
 21
50.4221
  0
LINE
  8
0
 10
-59.6888
 20
50.4221
 11
-59.8271
 21
50.086
  0
LINE
  8
0
 10
-59.8271
 20
50.086
 11
-60.0146
 21
49.8132
  0
LINE
  8
0
 10
-60.0146
 20
49.8132
 11
-60.2613
 21
49.5957
  0
LINE
  8
0
 10
-60.2613
 20
49.5957
 11
-60.5671
 21
49.4337
  0
LINE
  8
0
 10
-60.5671
 20
49.4337
 11
-60.9321
 21
49.327
  0
LINE
  8
0
 10
-60.9321
 20
49.327
 11
-60.9321
 21
47.616
  0
LINE
  8
0
 10
-60.9321
 20
47.616
 11
-59.0143
 21
47.9391
  0
LINE
  8
0
 10
38.9841
 20
47.9391
 11
40.6906
 21
48.5922
  0
LINE
  8
0
 10
40.6906
 20
48.5922
 11
42.1856
 21
49.5756
  0
LINE
  8
0
 10
42.1856
 20
49.5756
 11
43.4693
 21
50.889
  0
LINE
  8
0
 10
43.4693
 20
50.889
 11
44.5001
 21
52.4757
  0
LINE
  8
0
 10
44.5001
 20
52.4757
 11
45.2363
 21
54.278
  0
LINE
  8
0
 10
45.2363
 20
54.278
 11
45.6781
 21
56.2957
  0
LINE
  8
0
 10
45.6781
 20
56.2957
 11
45.8253
 21
58.529
  0
LINE
  8
0
 10
45.8253
 20
58.529
 11
45.6751
 21
60.7807
  0
LINE
  8
0
 10
45.6751
 20
60.7807
 11
45.2246
 21
62.8227
  0
LINE
  8
0
 10
45.2246
 20
62.8227
 11
44.4736
 21
64.6552
  0
LINE
  8
0
 10
44.4736
 20
64.6552
 11
43.4223
 21
66.278
  0
LINE
  8
0
 10
43.4223
 20
66.278
 11
42.1239
 21
67.6205
  0
LINE
  8
0
 10
42.1239
 20
67.6205
 11
40.6318
 21
68.611
  0
LINE
  8
0
 10
40.6318
 20
68.611
 11
38.9459
 21
69.2495
  0
LINE
  8
0
 10
38.9459
 20
69.2495
 11
37.0663
 21
69.536
  0
LINE
  8
0
 10
37.0663
 20
69.536
 11
37.0663
 21
67.825
  0
LINE
  8
0
 10
37.0663
 20
67.825
 11
37.4312
 21
67.6837
  0
LINE
  8
0
 10
37.4312
 20
67.6837
 11
37.7371
 21
67.5127
  0
LINE
  8
0
 10
37.7371
 20
67.5127
 11
37.9837
 21
67.3122
  0
LINE
  8
0
 10
37.9837
 20
67.3122
 11
38.1713
 21
67.082
  0
LINE
  8
0
 10
38.1713
 20
67.082
 11
38.3096
 21
66.8122
  0
LINE
  8
0
 10
38.3096
 20
66.8122
 11
38.4083
 21
66.493
  0
LINE
  8
0
 10
38.4083
 20
66.493
 11
38.4676
 21
66.1242
  0
LINE
  8
0
 10
38.4676
 20
66.1242
 11
38.4873
 21
65.706
  0
LINE
  8
0
 10
38.4873
 20
65.706
 11
38.4873
 21
51.857
  0
LINE
  8
0
 10
38.4873
 20
51.857
 11
38.4676
 21
51.3076
  0
LINE
  8
0
 10
38.4676
 20
51.3076
 11
38.4083
 21
50.8292
  0
LINE
  8
0
 10
38.4083
 20
50.8292
 11
38.3096
 21
50.4221
  0
LINE
  8
0
 10
38.3096
 20
50.4221
 11
38.1713
 21
50.086
  0
LINE
  8
0
 10
38.1713
 20
50.086
 11
37.9837
 21
49.8132
  0
LINE
  8
0
 10
37.9837
 20
49.8132
 11
37.7371
 21
49.5957
  0
LINE
  8
0
 10
37.7371
 20
49.5957
 11
37.4312
 21
49.4337
  0
LINE
  8
0
 10
37.4312
 20
49.4337
 11
37.0663
 21
49.327
  0
LINE
  8
0
 10
37.0663
 20
49.327
 11
37.0663
 21
47.616
  0
LINE
  8
0
 10
37.0663
 20
47.616
 11
38.9841
 21
47.9391
  0
LINE
  8
0
 10
-62.2111
 20
49.295
 11
-62.5732
 21
49.4252
  0
LINE
  8
0
 10
-62.5732
 20
49.4252
 11
-62.8766
 21
49.595
  0
LINE
  8
0
 10
-62.8766
 20
49.595
 11
-63.1212
 21
49.8042
  0
LINE
  8
0
 10
-63.1212
 20
49.8042
 11
-63.3071
 21
50.053
  0
LINE
  8
0
 10
-63.3071
 20
50.053
 11
-63.444
 21
50.3694
  0
LINE
  8
0
 10
-63.444
 20
50.3694
 11
-63.5418
 21
50.7807
  0
LINE
  8
0
 10
-63.5418
 20
50.7807
 11
-63.6005
 21
51.2869
  0
LINE
  8
0
 10
-63.6005
 20
51.2869
 11
-63.6201
 21
51.888
  0
LINE
  8
0
 10
-63.6201
 20
51.888
 11
-63.6201
 21
65.675
  0
LINE
  8
0
 10
-63.6201
 20
65.675
 11
-63.6005
 21
66.1068
  0
LINE
  8
0
 10
-63.6005
 20
66.1068
 11
-63.5418
 21
66.4852
  0
LINE
  8
0
 10
-63.5418
 20
66.4852
 11
-63.444
 21
66.8103
  0
LINE
  8
0
 10
-63.444
 20
66.8103
 11
-63.3071
 21
67.082
  0
LINE
  8
0
 10
-63.3071
 20
67.082
 11
-63.1212
 21
67.3142
  0
LINE
  8
0
 10
-63.1212
 20
67.3142
 11
-62.8766
 21
67.5207
  0
LINE
  8
0
 10
-62.8766
 20
67.5207
 11
-62.5732
 21
67.7017
  0
LINE
  8
0
 10
-62.5732
 20
67.7017
 11
-62.2111
 21
67.857
  0
LINE
  8
0
 10
-62.2111
 20
67.857
 11
-62.2111
 21
69.504
  0
LINE
  8
0
 10
-62.2111
 20
69.504
 11
-64.0773
 21
69.231
  0
LINE
  8
0
 10
-64.0773
 20
69.231
 11
-65.7558
 21
68.6022
  0
LINE
  8
0
 10
-65.7558
 20
68.6022
 11
-67.2468
 21
67.6176
  0
LINE
  8
0
 10
-67.2468
 20
67.6176
 11
-68.5501
 21
66.277
  0
LINE
  8
0
 10
-68.5501
 20
66.277
 11
-69.608
 21
64.6542
  0
LINE
  8
0
 10
-69.608
 20
64.6542
 11
-70.3636
 21
62.8217
  0
LINE
  8
0
 10
-70.3636
 20
62.8217
 11
-70.817
 21
60.7797
  0
LINE
  8
0
 10
-70.817
 20
60.7797
 11
-70.9681
 21
58.528
  0
LINE
  8
0
 10
-70.9681
 20
58.528
 11
-70.8199
 21
56.2952
  0
LINE
  8
0
 10
-70.8199
 20
56.2952
 11
-70.3753
 21
54.2777
  0
LINE
  8
0
 10
-70.3753
 20
54.2777
 11
-69.6344
 21
52.4757
  0
LINE
  8
0
 10
-69.6344
 20
52.4757
 11
-68.5971
 21
50.889
  0
LINE
  8
0
 10
-68.5971
 20
50.889
 11
-67.3088
 21
49.5756
  0
LINE
  8
0
 10
-67.3088
 20
49.5756
 11
-65.8151
 21
48.5922
  0
LINE
  8
0
 10
-65.8151
 20
48.5922
 11
-64.1158
 21
47.9391
  0
LINE
  8
0
 10
-64.1158
 20
47.9391
 11
-62.2111
 21
47.616
  0
LINE
  8
0
 10
-62.2111
 20
47.616
 11
-62.2111
 21
49.295
  0
LINE
  8
0
 10
56.9707
 20
49.295
 11
56.6086
 21
49.4252
  0
LINE
  8
0
 10
56.6086
 20
49.4252
 11
56.3052
 21
49.595
  0
LINE
  8
0
 10
56.3052
 20
49.595
 11
56.0606
 21
49.8042
  0
LINE
  8
0
 10
56.0606
 20
49.8042
 11
55.8747
 21
50.053
  0
LINE
  8
0
 10
55.8747
 20
50.053
 11
55.7378
 21
50.3694
  0
LINE
  8
0
 10
55.7378
 20
50.3694
 11
55.64
 21
50.7807
  0
LINE
  8
0
 10
55.64
 20
50.7807
 11
55.5813
 21
51.2869
  0
LINE
  8
0
 10
55.5813
 20
51.2869
 11
55.5617
 21
51.888
  0
LINE
  8
0
 10
55.5617
 20
51.888
 11
55.5617
 21
65.675
  0
LINE
  8
0
 10
55.5617
 20
65.675
 11
55.5813
 21
66.1068
  0
LINE
  8
0
 10
55.5813
 20
66.1068
 11
55.64
 21
66.4852
  0
LINE
  8
0
 10
55.64
 20
66.4852
 11
55.7378
 21
66.8103
  0
LINE
  8
0
 10
55.7378
 20
66.8103
 11
55.8747
 21
67.082
  0
LINE
  8
0
 10
55.8747
 20
67.082
 11
56.0606
 21
67.3142
  0
LINE
  8
0
 10
56.0606
 20
67.3142
 11
56.3052
 21
67.5207
  0
LINE
  8
0
 10
56.3052
 20
67.5207
 11
56.6086
 21
67.7017
  0
LINE
  8
0
 10
56.6086
 20
67.7017
 11
56.9707
 21
67.857
  0
LINE
  8
0
 10
56.9707
 20
67.857
 11
56.9707
 21
69.504
  0
LINE
  8
0
 10
56.9707
 20
69.504
 11
55.1045
 21
69.231
  0
LINE
  8
0
 10
55.1045
 20
69.231
 11
53.426
 21
68.6022
  0
LINE
  8
0
 10
53.426
 20
68.6022
 11
51.935
 21
67.6176
  0
LINE
  8
0
 10
51.935
 20
67.6176
 11
50.6317
 21
66.277
  0
LINE
  8
0
 10
50.6317
 20
66.277
 11
49.5738
 21
64.6542
  0
LINE
  8
0
 10
49.5738
 20
64.6542
 11
48.8182
 21
62.8217
  0
LINE
  8
0
 10
48.8182
 20
62.8217
 11
48.3648
 21
60.7797
  0
LINE
  8
0
 10
48.3648
 20
60.7797
 11
48.2137
 21
58.528
  0
LINE
  8
0
 10
48.2137
 20
58.528
 11
48.3619
 21
56.2952
  0
LINE
  8
0
 10
48.3619
 20
56.2952
 11
48.8065
 21
54.2777
  0
LINE
  8
0
 10
48.8065
 20
54.2777
 11
49.5474
 21
52.4757
  0
LINE
  8
0
 10
49.5474
 20
52.4757
 11
50.5847
 21
50.889
  0
LINE
  8
0
 10
50.5847
 20
50.889
 11
51.873
 21
49.5756
  0
LINE
  8
0
 10
51.873
 20
49.5756
 11
53.3667
 21
48.5922
  0
LINE
  8
0
 10
53.3667
 20
48.5922
 11
55.066
 21
47.9391
  0
LINE
  8
0
 10
55.066
 20
47.9391
 11
56.9707
 21
47.616
  0
LINE
  8
0
 10
56.9707
 20
47.616
 11
56.9707
 21
49.295
  0
LINE
  8
0
 10
35.7873
 20
49.295
 11
35.4252
 21
49.4252
  0
LINE
  8
0
 10
35.4252
 20
49.4252
 11
35.1218
 21
49.595
  0
LINE
  8
0
 10
35.1218
 20
49.595
 11
34.8772
 21
49.8042
  0
LINE
  8
0
 10
34.8772
 20
49.8042
 11
34.6913
 21
50.053
  0
LINE
  8
0
 10
34.6913
 20
50.053
 11
34.5544
 21
50.3694
  0
LINE
  8
0
 10
34.5544
 20
50.3694
 11
34.4566
 21
50.7807
  0
LINE
  8
0
 10
34.4566
 20
50.7807
 11
34.3979
 21
51.2869
  0
LINE
  8
0
 10
34.3979
 20
51.2869
 11
34.3783
 21
51.888
  0
LINE
  8
0
 10
34.3783
 20
51.888
 11
34.3783
 21
65.675
  0
LINE
  8
0
 10
34.3783
 20
65.675
 11
34.3979
 21
66.1068
  0
LINE
  8
0
 10
34.3979
 20
66.1068
 11
34.4566
 21
66.4852
  0
LINE
  8
0
 10
34.4566
 20
66.4852
 11
34.5544
 21
66.8103
  0
LINE
  8
0
 10
34.5544
 20
66.8103
 11
34.6913
 21
67.082
  0
LINE
  8
0
 10
34.6913
 20
67.082
 11
34.8772
 21
67.3142
  0
LINE
  8
0
 10
34.8772
 20
67.3142
 11
35.1218
 21
67.5207
  0
LINE
  8
0
 10
35.1218
 20
67.5207
 11
35.4252
 21
67.7017
  0
LINE
  8
0
 10
35.4252
 20
67.7017
 11
35.7873
 21
67.857
  0
LINE
  8
0
 10
35.7873
 20
67.857
 11
35.7873
 21
69.504
  0
LINE
  8
0
 10
35.7873
 20
69.504
 11
33.9211
 21
69.231
  0
LINE
  8
0
 10
33.9211
 20
69.231
 11
32.2426
 21
68.6022
  0
LINE
  8
0
 10
32.2426
 20
68.6022
 11
30.7516
 21
67.6176
  0
LINE
  8
0
 10
30.7516
 20
67.6176
 11
29.4483
 21
66.277
  0
LINE
  8
0
 10
29.4483
 20
66.277
 11
28.3904
 21
64.6542
  0
LINE
  8
0
 10
28.3904
 20
64.6542
 11
27.6348
 21
62.8217
  0
LINE
  8
0
 10
27.6348
 20
62.8217
 11
27.1814
 21
60.7797
  0
LINE
  8
0
 10
27.1814
 20
60.7797
 11
27.0303
 21
58.528
  0
LINE
  8
0
 10
27.0303
 20
58.528
 11
27.1785
 21
56.2952
  0
LINE
  8
0
 10
27.1785
 20
56.2952
 11
27.6231
 21
54.2777
  0
LINE
  8
0
 10
27.6231
 20
54.2777
 11
28.364
 21
52.4757
  0
LINE
  8
0
 10
28.364
 20
52.4757
 11
29.4013
 21
50.889
  0
LINE
  8
0
 10
29.4013
 20
50.889
 11
30.6896
 21
49.5756
  0
LINE
  8
0
 10
30.6896
 20
49.5756
 11
32.1833
 21
48.5922
  0
LINE
  8
0
 10
32.1833
 20
48.5922
 11
33.8826
 21
47.9391
  0
LINE
  8
0
 10
33.8826
 20
47.9391
 11
35.7873
 21
47.616
  0
LINE
  8
0
 10
35.7873
 20
47.616
 11
35.7873
 21
49.295
  0
LINE
  8
0
 10
90.2433
 20
48.0119
 11
90.4849
 21
48.0475
  0
LINE
  8
0
 10
90.4849
 20
48.0475
 11
90.6868
 21
48.1069
  0
LINE
  8
0
 10
90.6868
 20
48.1069
 11
90.8491
 21
48.19
  0
LINE
  8
0
 10
90.8491
 20
48.19
 11
90.9738
 21
48.2989
  0
LINE
  8
0
 10
90.9738
 20
48.2989
 11
91.0629
 21
48.4355
  0
LINE
  8
0
 10
91.0629
 20
48.4355
 11
91.1163
 21
48.5999
  0
LINE
  8
0
 10
91.1163
 20
48.5999
 11
91.1341
 21
48.792
  0
LINE
  8
0
 10
91.1341
 20
48.792
 11
91.1291
 21
48.912
  0
LINE
  8
0
 10
91.1291
 20
48.912
 11
91.1141
 21
49.018
  0
LINE
  8
0
 10
91.1141
 20
49.018
 11
91.0891
 21
49.11
  0
LINE
  8
0
 10
91.0891
 20
49.11
 11
91.0541
 21
49.188
  0
LINE
  8
0
 10
91.0541
 20
49.188
 11
91.0057
 21
49.2585
  0
LINE
  8
0
 10
91.0057
 20
49.2585
 11
90.9396
 21
49.327
  0
LINE
  8
0
 10
90.9396
 20
49.327
 11
90.8557
 21
49.3935
  0
LINE
  8
0
 10
90.8557
 20
49.3935
 11
90.7541
 21
49.458
  0
LINE
  8
0
 10
90.7541
 20
49.458
 11
90.3635
 21
49.6534
  0
LINE
  8
0
 10
90.3635
 20
49.6534
 11
90.2389
 21
49.7317
  0
LINE
  8
0
 10
90.2389
 20
49.7317
 11
90.126
 21
49.8199
  0
LINE
  8
0
 10
90.126
 20
49.8199
 11
90.0251
 21
49.918
  0
LINE
  8
0
 10
90.0251
 20
49.918
 11
89.932
 21
50.0319
  0
LINE
  8
0
 10
89.932
 20
50.0319
 11
89.8428
 21
50.1677
  0
LINE
  8
0
 10
89.8428
 20
50.1677
 11
89.7575
 21
50.3254
  0
LINE
  8
0
 10
89.7575
 20
50.3254
 11
89.6761
 21
50.505
  0
LINE
  8
0
 10
89.6761
 20
50.505
 11
89.6615
 21
50.5225
  0
LINE
  8
0
 10
89.6615
 20
50.5225
 11
89.6488
 21
50.544
  0
LINE
  8
0
 10
89.6488
 20
50.544
 11
89.638
 21
50.5695
  0
LINE
  8
0
 10
89.638
 20
50.5695
 11
89.5961
 21
50.7124
  0
LINE
  8
0
 10
89.5961
 20
50.7124
 11
89.5811
 21
50.758
  0
LINE
  8
0
 10
89.5811
 20
50.758
 11
84.9241
 21
63
  0
LINE
  8
0
 10
84.9241
 20
63
 11
85.9701
 21
64.427
  0
LINE
  8
0
 10
85.9701
 20
64.427
 11
86.1827
 21
64.7126
  0
LINE
  8
0
 10
86.1827
 20
64.7126
 11
86.3776
 21
64.9662
  0
LINE
  8
0
 10
86.3776
 20
64.9662
 11
86.5547
 21
65.188
  0
LINE
  8
0
 10
86.5547
 20
65.188
 11
86.7141
 21
65.378
  0
LINE
  8
0
 10
86.7141
 20
65.378
 11
86.8597
 21
65.5446
  0
LINE
  8
0
 10
86.8597
 20
65.5446
 11
86.9954
 21
65.6952
  0
LINE
  8
0
 10
86.9954
 20
65.6952
 11
87.1212
 21
65.83
  0
LINE
  8
0
 10
87.1212
 20
65.83
 11
87.3641
 21
66.076
  0
LINE
  8
0
 10
87.3641
 20
66.076
 11
87.4265
 21
66.1099
  0
LINE
  8
0
 10
87.4265
 20
66.1099
 11
87.4869
 21
66.1477
  0
LINE
  8
0
 10
87.4869
 20
66.1477
 11
87.545
 21
66.1894
  0
LINE
  8
0
 10
87.545
 20
66.1894
 11
87.6576
 21
66.2805
  0
LINE
  8
0
 10
87.6576
 20
66.2805
 11
87.7161
 21
66.322
  0
LINE
  8
0
 10
87.7161
 20
66.322
 11
87.7766
 21
66.3595
  0
LINE
  8
0
 10
87.7766
 20
66.3595
 11
87.8391
 21
66.393
  0
LINE
  8
0
 10
87.8391
 20
66.393
 11
87.9647
 21
66.4854
  0
LINE
  8
0
 10
87.9647
 20
66.4854
 11
88.0883
 21
66.5717
  0
LINE
  8
0
 10
88.0883
 20
66.5717
 11
88.2102
 21
66.6519
  0
LINE
  8
0
 10
88.2102
 20
66.6519
 11
88.7261
 21
66.964
  0
LINE
  8
0
 10
88.7261
 20
66.964
 11
89.5501
 21
67.281
  0
LINE
  8
0
 10
89.5501
 20
67.281
 11
89.7132
 21
67.3514
  0
LINE
  8
0
 10
89.7132
 20
67.3514
 11
89.8546
 21
67.4357
  0
LINE
  8
0
 10
89.8546
 20
67.4357
 11
89.9742
 21
67.5339
  0
LINE
  8
0
 10
89.9742
 20
67.5339
 11
90.0721
 21
67.646
  0
LINE
  8
0
 10
90.0721
 20
67.646
 11
90.1487
 21
67.7699
  0
LINE
  8
0
 10
90.1487
 20
67.7699
 11
90.2034
 21
67.9037
  0
LINE
  8
0
 10
90.2034
 20
67.9037
 11
90.2362
 21
68.0474
  0
LINE
  8
0
 10
90.2362
 20
68.0474
 11
90.2471
 21
68.201
  0
LINE
  8
0
 10
90.2471
 20
68.201
 11
90.2283
 21
68.41
  0
LINE
  8
0
 10
90.2283
 20
68.41
 11
90.1719
 21
68.5932
  0
LINE
  8
0
 10
90.1719
 20
68.5932
 11
90.0778
 21
68.7505
  0
LINE
  8
0
 10
90.0778
 20
68.7505
 11
89.9461
 21
68.882
  0
LINE
  8
0
 10
89.9461
 20
68.882
 11
89.7807
 21
68.9881
  0
LINE
  8
0
 10
89.7807
 20
68.9881
 11
89.5856
 21
69.0685
  0
LINE
  8
0
 10
89.5856
 20
69.0685
 11
89.3607
 21
69.1231
  0
LINE
  8
0
 10
89.3607
 20
69.1231
 11
89.1061
 21
69.152
  0
LINE
  8
0
 10
89.1061
 20
69.152
 11
83.5941
 21
69.12
  0
LINE
  8
0
 10
83.5941
 20
69.12
 11
83.3564
 21
69.1071
  0
LINE
  8
0
 10
83.3564
 20
69.1071
 11
83.1504
 21
69.0685
  0
LINE
  8
0
 10
83.1504
 20
69.0685
 11
82.9759
 21
69.0041
  0
LINE
  8
0
 10
82.9759
 20
69.0041
 11
82.8331
 21
68.914
  0
LINE
  8
0
 10
82.8331
 20
68.914
 11
82.7224
 21
68.7962
  0
LINE
  8
0
 10
82.7224
 20
68.7962
 11
82.6434
 21
68.6487
  0
LINE
  8
0
 10
82.6434
 20
68.6487
 11
82.5959
 21
68.4717
  0
LINE
  8
0
 10
82.5959
 20
68.4717
 11
82.5801
 21
68.265
  0
LINE
  8
0
 10
82.5801
 20
68.265
 11
82.588
 21
68.1429
  0
LINE
  8
0
 10
82.588
 20
68.1429
 11
82.6119
 21
68.0307
  0
LINE
  8
0
 10
82.6119
 20
68.0307
 11
82.6516
 21
67.9284
  0
LINE
  8
0
 10
82.6516
 20
67.9284
 11
82.7071
 21
67.836
  0
LINE
  8
0
 10
82.7071
 20
67.836
 11
82.7785
 21
67.7539
  0
LINE
  8
0
 10
82.7785
 20
67.7539
 11
82.8656
 21
67.6817
  0
LINE
  8
0
 10
82.8656
 20
67.6817
 11
82.9685
 21
67.6194
  0
LINE
  8
0
 10
82.9685
 20
67.6194
 11
83.0871
 21
67.567
  0
LINE
  8
0
 10
83.0871
 20
67.567
 11
83.6571
 21
67.282
  0
LINE
  8
0
 10
83.6571
 20
67.282
 11
83.8382
 21
67.2026
  0
LINE
  8
0
 10
83.8382
 20
67.2026
 11
84.0016
 21
67.0915
  0
LINE
  8
0
 10
84.0016
 20
67.0915
 11
84.1472
 21
66.9486
  0
LINE
  8
0
 10
84.1472
 20
66.9486
 11
84.2751
 21
66.774
  0
LINE
  8
0
 10
84.2751
 20
66.774
 11
84.3792
 21
66.58
  0
LINE
  8
0
 10
84.3792
 20
66.58
 11
84.4536
 21
66.378
  0
LINE
  8
0
 10
84.4536
 20
66.378
 11
84.4982
 21
66.168
  0
LINE
  8
0
 10
84.4982
 20
66.168
 11
84.5131
 21
65.95
  0
LINE
  8
0
 10
84.5131
 20
65.95
 11
84.5101
 21
65.8536
  0
LINE
  8
0
 10
84.5101
 20
65.8536
 11
84.5011
 21
65.7552
  0
LINE
  8
0
 10
84.5011
 20
65.7552
 11
84.4861
 21
65.6551
  0
LINE
  8
0
 10
84.4861
 20
65.6551
 11
84.4651
 21
65.553
  0
LINE
  8
0
 10
84.4651
 20
65.553
 11
84.4138
 21
65.343
  0
LINE
  8
0
 10
84.4138
 20
65.343
 11
84.3541
 21
65.125
  0
LINE
  8
0
 10
84.3541
 20
65.125
 11
84.2206
 21
64.8484
  0
LINE
  8
0
 10
84.2206
 20
64.8484
 11
84.1801
 21
64.76
  0
LINE
  8
0
 10
84.1801
 20
64.76
 11
84.1376
 21
64.6759
  0
LINE
  8
0
 10
84.1376
 20
64.6759
 11
84.0891
 21
64.5977
  0
LINE
  8
0
 10
84.0891
 20
64.5977
 11
84.0346
 21
64.5254
  0
LINE
  8
0
 10
84.0346
 20
64.5254
 11
83.9741
 21
64.459
  0
LINE
  8
0
 10
83.9741
 20
64.459
 11
80.2861
 21
59.226
  0
LINE
  8
0
 10
80.2861
 20
59.226
 11
80.2105
 21
59.1329
  0
LINE
  8
0
 10
80.2105
 20
59.1329
 11
80.1429
 21
59.0437
  0
LINE
  8
0
 10
80.1429
 20
59.0437
 11
80.083
 21
58.9584
  0
LINE
  8
0
 10
80.083
 20
58.9584
 11
80.0311
 21
58.877
  0
LINE
  8
0
 10
80.0311
 20
58.877
 11
79.9855
 21
58.7979
  0
LINE
  8
0
 10
79.9855
 20
58.7979
 11
79.9439
 21
58.7188
  0
LINE
  8
0
 10
79.9439
 20
58.7188
 11
79.906
 21
58.6394
  0
LINE
  8
0
 10
79.906
 20
58.6394
 11
79.8721
 21
58.56
  0
LINE
  8
0
 10
79.8721
 20
58.56
 11
79.8441
 21
58.433
  0
LINE
  8
0
 10
79.8441
 20
58.433
 11
79.8241
 21
58.306
  0
LINE
  8
0
 10
79.8241
 20
58.306
 11
79.8121
 21
58.1792
  0
LINE
  8
0
 10
79.8121
 20
58.1792
 11
79.8081
 21
58.053
  0
LINE
  8
0
 10
79.8081
 20
58.053
 11
79.813
 21
57.9051
  0
LINE
  8
0
 10
79.813
 20
57.9051
 11
79.8279
 21
57.7472
  0
LINE
  8
0
 10
79.8279
 20
57.7472
 11
79.8525
 21
57.5796
  0
LINE
  8
0
 10
79.8525
 20
57.5796
 11
79.8871
 21
57.402
  0
LINE
  8
0
 10
79.8871
 20
57.402
 11
79.9301
 21
57.2209
  0
LINE
  8
0
 10
79.9301
 20
57.2209
 11
79.9791
 21
57.0417
  0
LINE
  8
0
 10
79.9791
 20
57.0417
 11
80.0341
 21
56.8644
  0
LINE
  8
0
 10
80.0341
 20
56.8644
 11
80.0951
 21
56.689
  0
LINE
  8
0
 10
80.0951
 20
56.689
 11
82.1281
 21
50.5557
  0
LINE
  8
0
 10
82.1281
 20
50.5557
 11
82.1681
 21
50.425
  0
LINE
  8
0
 10
82.1681
 20
50.425
 11
82.1821
 21
50.3724
  0
LINE
  8
0
 10
82.1821
 20
50.3724
 11
82.1921
 21
50.3257
  0
LINE
  8
0
 10
82.1921
 20
50.3257
 11
82.1981
 21
50.2849
  0
LINE
  8
0
 10
82.1981
 20
50.2849
 11
82.2001
 21
50.25
  0
LINE
  8
0
 10
82.2001
 20
50.25
 11
82.1981
 21
50.2025
  0
LINE
  8
0
 10
82.1981
 20
50.2025
 11
82.1921
 21
50.155
  0
LINE
  8
0
 10
82.1921
 20
50.155
 11
82.1821
 21
50.1075
  0
LINE
  8
0
 10
82.1821
 20
50.1075
 11
82.1681
 21
50.06
  0
LINE
  8
0
 10
82.1681
 20
50.06
 11
82.1485
 21
50.0145
  0
LINE
  8
0
 10
82.1485
 20
50.0145
 11
82.1208
 21
49.973
  0
LINE
  8
0
 10
82.1208
 20
49.973
 11
82.085
 21
49.9355
  0
LINE
  8
0
 10
82.085
 20
49.9355
 11
82.0411
 21
49.902
  0
LINE
  8
0
 10
82.0411
 20
49.902
 11
82.0066
 21
49.87
  0
LINE
  8
0
 10
82.0066
 20
49.87
 11
81.9661
 21
49.838
  0
LINE
  8
0
 10
81.9661
 20
49.838
 11
81.9196
 21
49.806
  0
LINE
  8
0
 10
81.9196
 20
49.806
 11
81.8671
 21
49.774
  0
LINE
  8
0
 10
81.8671
 20
49.774
 11
81.8087
 21
49.7425
  0
LINE
  8
0
 10
81.8087
 20
49.7425
 11
81.7444
 21
49.711
  0
LINE
  8
0
 10
81.7444
 20
49.711
 11
81.6742
 21
49.6795
  0
LINE
  8
0
 10
81.6742
 20
49.6795
 11
81.5981
 21
49.648
  0
LINE
  8
0
 10
81.5981
 20
49.648
 11
81.4515
 21
49.5666
  0
LINE
  8
0
 10
81.4515
 20
49.5666
 11
81.3286
 21
49.4812
  0
LINE
  8
0
 10
81.3286
 20
49.4812
 11
81.2295
 21
49.3921
  0
LINE
  8
0
 10
81.2295
 20
49.3921
 11
81.1541
 21
49.299
  0
LINE
  8
0
 10
81.1541
 20
49.299
 11
81.0985
 21
49.2
  0
LINE
  8
0
 10
81.0985
 20
49.2
 11
81.0589
 21
49.093
  0
LINE
  8
0
 10
81.0589
 20
49.093
 11
81.035
 21
48.978
  0
LINE
  8
0
 10
81.035
 20
48.978
 11
81.0271
 21
48.855
  0
LINE
  8
0
 10
81.0271
 20
48.855
 11
81.0459
 21
48.6609
  0
LINE
  8
0
 10
81.0459
 20
48.6609
 11
81.1024
 21
48.4905
  0
LINE
  8
0
 10
81.1024
 20
48.4905
 11
81.1964
 21
48.3439
  0
LINE
  8
0
 10
81.1964
 20
48.3439
 11
81.3281
 21
48.221
  0
LINE
  8
0
 10
81.3281
 20
48.221
 11
81.4955
 21
48.1243
  0
LINE
  8
0
 10
81.4955
 20
48.1243
 11
81.6966
 21
48.0552
  0
LINE
  8
0
 10
81.6966
 20
48.0552
 11
81.9315
 21
48.0138
  0
LINE
  8
0
 10
81.9315
 20
48.0138
 11
82.2001
 21
48
  0
LINE
  8
0
 10
82.2001
 20
48
 11
89.9621
 21
48
  0
LINE
  8
0
 10
89.9621
 20
48
 11
90.2433
 21
48.0119
  0
LINE
  8
0
 10
79.4791
 20
48.0119
 11
79.7101
 21
48.0475
  0
LINE
  8
0
 10
79.7101
 20
48.0475
 11
79.9031
 21
48.1069
  0
LINE
  8
0
 10
79.9031
 20
48.1069
 11
80.0581
 21
48.19
  0
LINE
  8
0
 10
80.0581
 20
48.19
 11
80.1771
 21
48.2989
  0
LINE
  8
0
 10
80.1771
 20
48.2989
 11
80.2621
 21
48.4355
  0
LINE
  8
0
 10
80.2621
 20
48.4355
 11
80.3131
 21
48.5999
  0
LINE
  8
0
 10
80.3131
 20
48.5999
 11
80.3301
 21
48.792
  0
LINE
  8
0
 10
80.3301
 20
48.792
 11
80.3211
 21
48.9378
  0
LINE
  8
0
 10
80.3211
 20
48.9378
 11
80.2941
 21
49.0702
  0
LINE
  8
0
 10
80.2941
 20
49.0702
 11
80.2491
 21
49.1893
  0
LINE
  8
0
 10
80.2491
 20
49.1893
 11
80.1861
 21
49.295
  0
LINE
  8
0
 10
80.1861
 20
49.295
 11
80.1031
 21
49.3897
  0
LINE
  8
0
 10
80.1031
 20
49.3897
 11
79.9981
 21
49.4747
  0
LINE
  8
0
 10
79.9981
 20
49.4747
 11
79.8711
 21
49.5502
  0
LINE
  8
0
 10
79.8711
 20
49.5502
 11
79.7221
 21
49.616
  0
LINE
  8
0
 10
79.7221
 20
49.616
 11
79.2421
 21
49.743
  0
LINE
  8
0
 10
79.2421
 20
49.743
 11
79.1371
 21
49.7879
  0
LINE
  8
0
 10
79.1371
 20
49.7879
 11
79.0461
 21
49.8585
  0
LINE
  8
0
 10
79.0461
 20
49.8585
 11
78.9691
 21
49.9549
  0
LINE
  8
0
 10
78.9691
 20
49.9549
 11
78.9061
 21
50.077
  0
LINE
  8
0
 10
78.9061
 20
50.077
 11
78.8571
 21
50.2229
  0
LINE
  8
0
 10
78.8571
 20
50.2229
 11
78.8221
 21
50.3907
  0
LINE
  8
0
 10
78.8221
 20
50.3907
 11
78.8011
 21
50.5804
  0
LINE
  8
0
 10
78.8011
 20
50.5804
 11
78.7941
 21
50.792
  0
LINE
  8
0
 10
78.7941
 20
50.792
 11
78.7941
 21
66.297
  0
LINE
  8
0
 10
78.7941
 20
66.297
 11
78.7991
 21
66.5175
  0
LINE
  8
0
 10
78.7991
 20
66.5175
 11
78.8141
 21
66.7022
  0
LINE
  8
0
 10
78.8141
 20
66.7022
 11
78.8391
 21
66.8511
  0
LINE
  8
0
 10
78.8391
 20
66.8511
 11
78.8741
 21
66.964
  0
LINE
  8
0
 10
78.8741
 20
66.964
 11
78.9311
 21
67.0575
  0
LINE
  8
0
 10
78.9311
 20
67.0575
 11
79.0221
 21
67.147
  0
LINE
  8
0
 10
79.0221
 20
67.147
 11
79.1471
 21
67.2325
  0
LINE
  8
0
 10
79.1471
 20
67.2325
 11
79.3061
 21
67.314
  0
LINE
  8
0
 10
79.3061
 20
67.314
 11
79.4061
 21
67.3497
  0
LINE
  8
0
 10
79.4061
 20
67.3497
 11
79.5711
 21
67.416
  0
LINE
  8
0
 10
79.5711
 20
67.416
 11
79.6301
 21
67.437
  0
LINE
  8
0
 10
79.6301
 20
67.437
 11
79.6911
 21
67.456
  0
LINE
  8
0
 10
79.6911
 20
67.456
 11
79.7541
 21
67.473
  0
LINE
  8
0
 10
79.7541
 20
67.473
 11
79.9041
 21
67.5274
  0
LINE
  8
0
 10
79.9041
 20
67.5274
 11
80.0341
 21
67.5957
  0
LINE
  8
0
 10
80.0341
 20
67.5957
 11
80.1441
 21
67.6779
  0
LINE
  8
0
 10
80.1441
 20
67.6779
 11
80.2341
 21
67.774
  0
LINE
  8
0
 10
80.2341
 20
67.774
 11
80.3041
 21
67.8819
  0
LINE
  8
0
 10
80.3041
 20
67.8819
 11
80.3541
 21
67.9997
  0
LINE
  8
0
 10
80.3541
 20
67.9997
 11
80.3841
 21
68.1274
  0
LINE
  8
0
 10
80.3841
 20
68.1274
 11
80.3941
 21
68.265
  0
LINE
  8
0
 10
80.3941
 20
68.265
 11
80.3761
 21
68.4711
  0
LINE
  8
0
 10
80.3761
 20
68.4711
 11
80.3221
 21
68.6455
  0
LINE
  8
0
 10
80.3221
 20
68.6455
 11
80.2321
 21
68.7881
  0
LINE
  8
0
 10
80.2321
 20
68.7881
 11
80.1061
 21
68.899
  0
LINE
  8
0
 10
80.1061
 20
68.899
 11
79.9421
 21
68.9861
  0
LINE
  8
0
 10
79.9421
 20
68.9861
 11
79.7381
 21
69.0572
  0
LINE
  8
0
 10
79.7381
 20
69.0572
 11
79.4941
 21
69.1125
  0
LINE
  8
0
 10
79.4941
 20
69.1125
 11
79.2101
 21
69.152
  0
LINE
  8
0
 10
79.2101
 20
69.152
 11
71.8881
 21
69.152
  0
LINE
  8
0
 10
71.8881
 20
69.152
 11
71.4761
 21
69.12
  0
LINE
  8
0
 10
71.4761
 20
69.12
 11
71.2079
 21
69.1071
  0
LINE
  8
0
 10
71.2079
 20
69.1071
 11
70.9734
 21
69.0685
  0
LINE
  8
0
 10
70.9734
 20
69.0685
 11
70.7724
 21
69.0041
  0
LINE
  8
0
 10
70.7724
 20
69.0041
 11
70.6051
 21
68.914
  0
LINE
  8
0
 10
70.6051
 20
68.914
 11
70.4734
 21
68.7962
  0
LINE
  8
0
 10
70.4734
 20
68.7962
 11
70.3793
 21
68.6487
  0
LINE
  8
0
 10
70.3793
 20
68.6487
 11
70.3229
 21
68.4717
  0
LINE
  8
0
 10
70.3229
 20
68.4717
 11
70.3041
 21
68.265
  0
LINE
  8
0
 10
70.3041
 20
68.265
 11
70.314
 21
68.1274
  0
LINE
  8
0
 10
70.314
 20
68.1274
 11
70.3436
 21
67.9997
  0
LINE
  8
0
 10
70.3436
 20
67.9997
 11
70.393
 21
67.8819
  0
LINE
  8
0
 10
70.393
 20
67.8819
 11
70.4621
 21
67.774
  0
LINE
  8
0
 10
70.4621
 20
67.774
 11
70.5515
 21
67.6779
  0
LINE
  8
0
 10
70.5515
 20
67.6779
 11
70.6606
 21
67.5957
  0
LINE
  8
0
 10
70.6606
 20
67.5957
 11
70.7895
 21
67.5274
  0
LINE
  8
0
 10
70.7895
 20
67.5274
 11
70.9381
 21
67.473
  0
LINE
  8
0
 10
70.9381
 20
67.473
 11
71.0002
 21
67.456
  0
LINE
  8
0
 10
71.0002
 20
67.456
 11
71.0603
 21
67.437
  0
LINE
  8
0
 10
71.0603
 20
67.437
 11
71.1187
 21
67.416
  0
LINE
  8
0
 10
71.1187
 20
67.416
 11
71.2821
 21
67.3497
  0
LINE
  8
0
 10
71.2821
 20
67.3497
 11
71.3811
 21
67.314
  0
LINE
  8
0
 10
71.3811
 20
67.314
 11
71.5387
 21
67.2329
  0
LINE
  8
0
 10
71.5387
 20
67.2329
 11
71.6626
 21
67.1477
  0
LINE
  8
0
 10
71.6626
 20
67.1477
 11
71.7527
 21
67.0584
  0
LINE
  8
0
 10
71.7527
 20
67.0584
 11
71.8091
 21
66.965
  0
LINE
  8
0
 10
71.8091
 20
66.965
 11
71.8437
 21
66.8541
  0
LINE
  8
0
 10
71.8437
 20
66.8541
 11
71.8684
 21
66.7115
  0
LINE
  8
0
 10
71.8684
 20
66.7115
 11
71.8832
 21
66.5371
  0
LINE
  8
0
 10
71.8832
 20
66.5371
 11
71.8881
 21
66.331
  0
LINE
  8
0
 10
71.8881
 20
66.331
 11
71.8881
 21
50.79
  0
LINE
  8
0
 10
71.8881
 20
50.79
 11
71.8832
 21
50.5698
  0
LINE
  8
0
 10
71.8832
 20
50.5698
 11
71.8684
 21
50.3852
  0
LINE
  8
0
 10
71.8684
 20
50.3852
 11
71.8437
 21
50.2363
  0
LINE
  8
0
 10
71.8437
 20
50.2363
 11
71.8091
 21
50.123
  0
LINE
  8
0
 10
71.8091
 20
50.123
 11
71.7527
 21
50.03
  0
LINE
  8
0
 10
71.7527
 20
50.03
 11
71.6626
 21
49.941
  0
LINE
  8
0
 10
71.6626
 20
49.941
 11
71.5387
 21
49.856
  0
LINE
  8
0
 10
71.5387
 20
49.856
 11
71.3811
 21
49.775
  0
LINE
  8
0
 10
71.3811
 20
49.775
 11
71.2821
 21
49.739
  0
LINE
  8
0
 10
71.2821
 20
49.739
 11
71.1187
 21
49.6724
  0
LINE
  8
0
 10
71.1187
 20
49.6724
 11
71.0603
 21
49.6517
  0
LINE
  8
0
 10
71.0603
 20
49.6517
 11
71.0002
 21
49.6329
  0
LINE
  8
0
 10
71.0002
 20
49.6329
 11
70.9381
 21
49.616
  0
LINE
  8
0
 10
70.9381
 20
49.616
 11
70.7895
 21
49.5616
  0
LINE
  8
0
 10
70.7895
 20
49.5616
 11
70.6606
 21
49.4932
  0
LINE
  8
0
 10
70.6606
 20
49.4932
 11
70.5515
 21
49.4111
  0
LINE
  8
0
 10
70.5515
 20
49.4111
 11
70.4621
 21
49.315
  0
LINE
  8
0
 10
70.4621
 20
49.315
 11
70.393
 21
49.2071
  0
LINE
  8
0
 10
70.393
 20
49.2071
 11
70.3436
 21
49.0892
  0
LINE
  8
0
 10
70.3436
 20
49.0892
 11
70.314
 21
48.9615
  0
LINE
  8
0
 10
70.314
 20
48.9615
 11
70.3041
 21
48.824
  0
LINE
  8
0
 10
70.3041
 20
48.824
 11
70.3219
 21
48.6309
  0
LINE
  8
0
 10
70.3219
 20
48.6309
 11
70.3754
 21
48.4635
  0
LINE
  8
0
 10
70.3754
 20
48.4635
 11
70.4644
 21
48.3219
  0
LINE
  8
0
 10
70.4644
 20
48.3219
 11
70.5891
 21
48.206
  0
LINE
  8
0
 10
70.5891
 20
48.206
 11
70.7514
 21
48.1159
  0
LINE
  8
0
 10
70.7514
 20
48.1159
 11
70.9534
 21
48.0515
  0
LINE
  8
0
 10
70.9534
 20
48.0515
 11
71.1949
 21
48.0129
  0
LINE
  8
0
 10
71.1949
 20
48.0129
 11
71.4761
 21
48
  0
LINE
  8
0
 10
71.4761
 20
48
 11
79.2101
 21
48
  0
LINE
  8
0
 10
79.2101
 20
48
 11
79.4791
 21
48.0119
  0
LINE
  8
0
 10
18.3316
 20
66.172
 11
18.3395
 21
66.4217
  0
LINE
  8
0
 10
18.3395
 20
66.4217
 11
18.3631
 21
66.6317
  0
LINE
  8
0
 10
18.3631
 20
66.6317
 11
18.4025
 21
66.8022
  0
LINE
  8
0
 10
18.4025
 20
66.8022
 11
18.4576
 21
66.933
  0
LINE
  8
0
 10
18.4576
 20
66.933
 11
18.5449
 21
67.04
  0
LINE
  8
0
 10
18.5449
 20
67.04
 11
18.6796
 21
67.139
  0
LINE
  8
0
 10
18.6796
 20
67.139
 11
18.8619
 21
67.23
  0
LINE
  8
0
 10
18.8619
 20
67.23
 11
19.0916
 21
67.313
  0
LINE
  8
0
 10
19.0916
 20
67.313
 11
19.1391
 21
67.315
  0
LINE
  8
0
 10
19.1391
 20
67.315
 11
19.1866
 21
67.321
  0
LINE
  8
0
 10
19.1866
 20
67.321
 11
19.2341
 21
67.331
  0
LINE
  8
0
 10
19.2341
 20
67.331
 11
19.3851
 21
67.3767
  0
LINE
  8
0
 10
19.3851
 20
67.3767
 11
19.5036
 21
67.408
  0
LINE
  8
0
 10
19.5036
 20
67.408
 11
19.6682
 21
67.4629
  0
LINE
  8
0
 10
19.6682
 20
67.4629
 11
19.8129
 21
67.5315
  0
LINE
  8
0
 10
19.8129
 20
67.5315
 11
19.9377
 21
67.6139
  0
LINE
  8
0
 10
19.9377
 20
67.6139
 11
20.0426
 21
67.71
  0
LINE
  8
0
 10
20.0426
 20
67.71
 11
20.1257
 21
67.8199
  0
LINE
  8
0
 10
20.1257
 20
67.8199
 11
20.1851
 21
67.9437
  0
LINE
  8
0
 10
20.1851
 20
67.9437
 11
20.2207
 21
68.0814
  0
LINE
  8
0
 10
20.2207
 20
68.0814
 11
20.2326
 21
68.233
  0
LINE
  8
0
 10
20.2326
 20
68.233
 11
20.2129
 21
68.4401
  0
LINE
  8
0
 10
20.2129
 20
68.4401
 11
20.1536
 21
68.6175
  0
LINE
  8
0
 10
20.1536
 20
68.6175
 11
20.0549
 21
68.7651
  0
LINE
  8
0
 10
20.0549
 20
68.7651
 11
19.9166
 21
68.883
  0
LINE
  8
0
 10
19.9166
 20
68.883
 11
19.733
 21
68.9771
  0
LINE
  8
0
 10
19.733
 20
68.9771
 11
19.4981
 21
69.0532
  0
LINE
  8
0
 10
19.4981
 20
69.0532
 11
19.212
 21
69.1116
  0
LINE
  8
0
 10
19.212
 20
69.1116
 11
18.8746
 21
69.152
  0
LINE
  8
0
 10
18.8746
 20
69.152
 11
11.4546
 21
69.152
  0
LINE
  8
0
 10
11.4546
 20
69.152
 11
11.0506
 21
69.12
  0
LINE
  8
0
 10
11.0506
 20
69.12
 11
10.7871
 21
69.1071
  0
LINE
  8
0
 10
10.7871
 20
69.1071
 11
10.5566
 21
69.0685
  0
LINE
  8
0
 10
10.5566
 20
69.0685
 11
10.3591
 21
69.0041
  0
LINE
  8
0
 10
10.3591
 20
69.0041
 11
10.1946
 21
68.914
  0
LINE
  8
0
 10
10.1946
 20
68.914
 11
10.0655
 21
68.7962
  0
LINE
  8
0
 10
10.0655
 20
68.7962
 11
9.97336
 21
68.6487
  0
LINE
  8
0
 10
9.97336
 20
68.6487
 11
9.91805
 21
68.4717
  0
LINE
  8
0
 10
9.91805
 20
68.4717
 11
9.89961
 21
68.265
  0
LINE
  8
0
 10
9.89961
 20
68.265
 11
9.90929
 21
68.1274
  0
LINE
  8
0
 10
9.90929
 20
68.1274
 11
9.93835
 21
67.9997
  0
LINE
  8
0
 10
9.93835
 20
67.9997
 11
9.98679
 21
67.8819
  0
LINE
  8
0
 10
9.98679
 20
67.8819
 11
10.0546
 21
67.774
  0
LINE
  8
0
 10
10.0546
 20
67.774
 11
10.1423
 21
67.6779
  0
LINE
  8
0
 10
10.1423
 20
67.6779
 11
10.2494
 21
67.5957
  0
LINE
  8
0
 10
10.2494
 20
67.5957
 11
10.3758
 21
67.5274
  0
LINE
  8
0
 10
10.3758
 20
67.5274
 11
10.5216
 21
67.473
  0
LINE
  8
0
 10
10.5216
 20
67.473
 11
10.5827
 21
67.456
  0
LINE
  8
0
 10
10.5827
 20
67.456
 11
10.6419
 21
67.437
  0
LINE
  8
0
 10
10.6419
 20
67.437
 11
10.6992
 21
67.416
  0
LINE
  8
0
 10
10.6992
 20
67.416
 11
10.8596
 21
67.3497
  0
LINE
  8
0
 10
10.8596
 20
67.3497
 11
10.9566
 21
67.314
  0
LINE
  8
0
 10
10.9566
 20
67.314
 11
11.1115
 21
67.2329
  0
LINE
  8
0
 10
11.1115
 20
67.2329
 11
11.2331
 21
67.1477
  0
LINE
  8
0
 10
11.2331
 20
67.1477
 11
11.3215
 21
67.0584
  0
LINE
  8
0
 10
11.3215
 20
67.0584
 11
11.3766
 21
66.965
  0
LINE
  8
0
 10
11.3766
 20
66.965
 11
11.4107
 21
66.8541
  0
LINE
  8
0
 10
11.4107
 20
66.8541
 11
11.4351
 21
66.7115
  0
LINE
  8
0
 10
11.4351
 20
66.7115
 11
11.4497
 21
66.5371
  0
LINE
  8
0
 10
11.4497
 20
66.5371
 11
11.4546
 21
66.331
  0
LINE
  8
0
 10
11.4546
 20
66.331
 11
11.4546
 21
50.79
  0
LINE
  8
0
 10
11.4546
 20
50.79
 11
11.4497
 21
50.5698
  0
LINE
  8
0
 10
11.4497
 20
50.5698
 11
11.4351
 21
50.3852
  0
LINE
  8
0
 10
11.4351
 20
50.3852
 11
11.4107
 21
50.2363
  0
LINE
  8
0
 10
11.4107
 20
50.2363
 11
11.3766
 21
50.123
  0
LINE
  8
0
 10
11.3766
 20
50.123
 11
11.3215
 21
50.03
  0
LINE
  8
0
 10
11.3215
 20
50.03
 11
11.2331
 21
49.941
  0
LINE
  8
0
 10
11.2331
 20
49.941
 11
11.1115
 21
49.856
  0
LINE
  8
0
 10
11.1115
 20
49.856
 11
10.9566
 21
49.775
  0
LINE
  8
0
 10
10.9566
 20
49.775
 11
10.8596
 21
49.739
  0
LINE
  8
0
 10
10.8596
 20
49.739
 11
10.6992
 21
49.6724
  0
LINE
  8
0
 10
10.6992
 20
49.6724
 11
10.6419
 21
49.6517
  0
LINE
  8
0
 10
10.6419
 20
49.6517
 11
10.5827
 21
49.6329
  0
LINE
  8
0
 10
10.5827
 20
49.6329
 11
10.5216
 21
49.616
  0
LINE
  8
0
 10
10.5216
 20
49.616
 11
10.3758
 21
49.5616
  0
LINE
  8
0
 10
10.3758
 20
49.5616
 11
10.2494
 21
49.4932
  0
LINE
  8
0
 10
10.2494
 20
49.4932
 11
10.1423
 21
49.4111
  0
LINE
  8
0
 10
10.1423
 20
49.4111
 11
10.0546
 21
49.315
  0
LINE
  8
0
 10
10.0546
 20
49.315
 11
9.98679
 21
49.2071
  0
LINE
  8
0
 10
9.98679
 20
49.2071
 11
9.93835
 21
49.0892
  0
LINE
  8
0
 10
9.93835
 20
49.0892
 11
9.90929
 21
48.9615
  0
LINE
  8
0
 10
9.90929
 20
48.9615
 11
9.89961
 21
48.824
  0
LINE
  8
0
 10
9.89961
 20
48.824
 11
9.9171
 21
48.6309
  0
LINE
  8
0
 10
9.9171
 20
48.6309
 11
9.9696
 21
48.4635
  0
LINE
  8
0
 10
9.9696
 20
48.4635
 11
10.0571
 21
48.3219
  0
LINE
  8
0
 10
10.0571
 20
48.3219
 11
10.1796
 21
48.206
  0
LINE
  8
0
 10
10.1796
 20
48.206
 11
10.3391
 21
48.1159
  0
LINE
  8
0
 10
10.3391
 20
48.1159
 11
10.5374
 21
48.0515
  0
LINE
  8
0
 10
10.5374
 20
48.0515
 11
10.7745
 21
48.0129
  0
LINE
  8
0
 10
10.7745
 20
48.0129
 11
11.0506
 21
48
  0
LINE
  8
0
 10
11.0506
 20
48
 11
18.3316
 21
48
  0
LINE
  8
0
 10
18.3316
 20
48
 11
18.3316
 21
66.172
  0
LINE
  8
0
 10
-83.5428
 20
69.12
 11
-90.4488
 21
69.12
  0
LINE
  8
0
 10
-90.4488
 20
69.12
 11
-90.8607
 21
69.088
  0
LINE
  8
0
 10
-90.8607
 20
69.088
 11
-91.1289
 21
69.0751
  0
LINE
  8
0
 10
-91.1289
 20
69.0751
 11
-91.3635
 21
69.0365
  0
LINE
  8
0
 10
-91.3635
 20
69.0365
 11
-91.5644
 21
68.9721
  0
LINE
  8
0
 10
-91.5644
 20
68.9721
 11
-91.7318
 21
68.882
  0
LINE
  8
0
 10
-91.7318
 20
68.882
 11
-91.8634
 21
68.7642
  0
LINE
  8
0
 10
-91.8634
 20
68.7642
 11
-91.9575
 21
68.6167
  0
LINE
  8
0
 10
-91.9575
 20
68.6167
 11
-92.0139
 21
68.4397
  0
LINE
  8
0
 10
-92.0139
 20
68.4397
 11
-92.0328
 21
68.233
  0
LINE
  8
0
 10
-92.0328
 20
68.233
 11
-92.0229
 21
68.0954
  0
LINE
  8
0
 10
-92.0229
 20
68.0954
 11
-91.9933
 21
67.9677
  0
LINE
  8
0
 10
-91.9933
 20
67.9677
 11
-91.9439
 21
67.8499
  0
LINE
  8
0
 10
-91.9439
 20
67.8499
 11
-91.8748
 21
67.742
  0
LINE
  8
0
 10
-91.8748
 20
67.742
 11
-91.7854
 21
67.6459
  0
LINE
  8
0
 10
-91.7854
 20
67.6459
 11
-91.6763
 21
67.5637
  0
LINE
  8
0
 10
-91.6763
 20
67.5637
 11
-91.5474
 21
67.4954
  0
LINE
  8
0
 10
-91.5474
 20
67.4954
 11
-91.3988
 21
67.441
  0
LINE
  8
0
 10
-91.3988
 20
67.441
 11
-91.3363
 21
67.4244
  0
LINE
  8
0
 10
-91.3363
 20
67.4244
 11
-91.276
 21
67.4057
  0
LINE
  8
0
 10
-91.276
 20
67.4057
 11
-91.2178
 21
67.3849
  0
LINE
  8
0
 10
-91.2178
 20
67.3849
 11
-91.0547
 21
67.3187
  0
LINE
  8
0
 10
-91.0547
 20
67.3187
 11
-90.9557
 21
67.283
  0
LINE
  8
0
 10
-90.9557
 20
67.283
 11
-90.7981
 21
67.202
  0
LINE
  8
0
 10
-90.7981
 20
67.202
 11
-90.6743
 21
67.117
  0
LINE
  8
0
 10
-90.6743
 20
67.117
 11
-90.5841
 21
67.028
  0
LINE
  8
0
 10
-90.5841
 20
67.028
 11
-90.5278
 21
66.935
  0
LINE
  8
0
 10
-90.5278
 20
66.935
 11
-90.4932
 21
66.8242
  0
LINE
  8
0
 10
-90.4932
 20
66.8242
 11
-90.4685
 21
66.6817
  0
LINE
  8
0
 10
-90.4685
 20
66.6817
 11
-90.4537
 21
66.5077
  0
LINE
  8
0
 10
-90.4537
 20
66.5077
 11
-90.4488
 21
66.302
  0
LINE
  8
0
 10
-90.4488
 20
66.302
 11
-90.4488
 21
50.787
  0
LINE
  8
0
 10
-90.4488
 20
50.787
 11
-90.4537
 21
50.5677
  0
LINE
  8
0
 10
-90.4537
 20
50.5677
 11
-90.4685
 21
50.384
  0
LINE
  8
0
 10
-90.4685
 20
50.384
 11
-90.4932
 21
50.2357
  0
LINE
  8
0
 10
-90.4932
 20
50.2357
 11
-90.5278
 21
50.123
  0
LINE
  8
0
 10
-90.5278
 20
50.123
 11
-90.5841
 21
50.0299
  0
LINE
  8
0
 10
-90.5841
 20
50.0299
 11
-90.6743
 21
49.9407
  0
LINE
  8
0
 10
-90.6743
 20
49.9407
 11
-90.7981
 21
49.8554
  0
LINE
  8
0
 10
-90.7981
 20
49.8554
 11
-90.9557
 21
49.774
  0
LINE
  8
0
 10
-90.9557
 20
49.774
 11
-91.0547
 21
49.7387
  0
LINE
  8
0
 10
-91.0547
 20
49.7387
 11
-91.2178
 21
49.6724
  0
LINE
  8
0
 10
-91.2178
 20
49.6724
 11
-91.276
 21
49.6517
  0
LINE
  8
0
 10
-91.276
 20
49.6517
 11
-91.3363
 21
49.6329
  0
LINE
  8
0
 10
-91.3363
 20
49.6329
 11
-91.3988
 21
49.616
  0
LINE
  8
0
 10
-91.3988
 20
49.616
 11
-91.5474
 21
49.5616
  0
LINE
  8
0
 10
-91.5474
 20
49.5616
 11
-91.6763
 21
49.4932
  0
LINE
  8
0
 10
-91.6763
 20
49.4932
 11
-91.7854
 21
49.4111
  0
LINE
  8
0
 10
-91.7854
 20
49.4111
 11
-91.8748
 21
49.315
  0
LINE
  8
0
 10
-91.8748
 20
49.315
 11
-91.9439
 21
49.2071
  0
LINE
  8
0
 10
-91.9439
 20
49.2071
 11
-91.9933
 21
49.0892
  0
LINE
  8
0
 10
-91.9933
 20
49.0892
 11
-92.0229
 21
48.9615
  0
LINE
  8
0
 10
-92.0229
 20
48.9615
 11
-92.0328
 21
48.824
  0
LINE
  8
0
 10
-92.0328
 20
48.824
 11
-92.0149
 21
48.6309
  0
LINE
  8
0
 10
-92.0149
 20
48.6309
 11
-91.9615
 21
48.4635
  0
LINE
  8
0
 10
-91.9615
 20
48.4635
 11
-91.8724
 21
48.3219
  0
LINE
  8
0
 10
-91.8724
 20
48.3219
 11
-91.7478
 21
48.206
  0
LINE
  8
0
 10
-91.7478
 20
48.206
 11
-91.5854
 21
48.1159
  0
LINE
  8
0
 10
-91.5854
 20
48.1159
 11
-91.3835
 21
48.0515
  0
LINE
  8
0
 10
-91.3835
 20
48.0515
 11
-91.1419
 21
48.0129
  0
LINE
  8
0
 10
-91.1419
 20
48.0129
 11
-90.8607
 21
48
  0
LINE
  8
0
 10
-90.8607
 20
48
 11
-83.5428
 21
48
  0
LINE
  8
0
 10
-83.5428
 20
48
 11
-83.5428
 21
69.12
  0
LINE
  8
0
 10
-81.8221
 20
48.0039
 11
-81.398
 21
48.0157
  0
LINE
  8
0
 10
-81.398
 20
48.0157
 11
-81.0196
 21
48.0354
  0
LINE
  8
0
 10
-81.0196
 20
48.0354
 11
-80.6868
 21
48.063
  0
LINE
  8
0
 10
-80.6868
 20
48.063
 11
-80.3798
 21
48.1029
  0
LINE
  8
0
 10
-80.3798
 20
48.1029
 11
-80.0788
 21
48.1585
  0
LINE
  8
0
 10
-80.0788
 20
48.1585
 11
-79.7838
 21
48.2299
  0
LINE
  8
0
 10
-79.7838
 20
48.2299
 11
-79.4948
 21
48.317
  0
LINE
  8
0
 10
-79.4948
 20
48.317
 11
-79.0508
 21
48.507
  0
LINE
  8
0
 10
-79.0508
 20
48.507
 11
-78.9393
 21
48.5565
  0
LINE
  8
0
 10
-78.9393
 20
48.5565
 11
-78.8278
 21
48.61
  0
LINE
  8
0
 10
-78.8278
 20
48.61
 11
-78.7162
 21
48.6675
  0
LINE
  8
0
 10
-78.7162
 20
48.6675
 11
-78.6048
 21
48.729
  0
LINE
  8
0
 10
-78.6048
 20
48.729
 11
-77.4208
 21
49.4581
  0
LINE
  8
0
 10
-77.4208
 20
49.4581
 11
-76.38
 21
50.3475
  0
LINE
  8
0
 10
-76.38
 20
50.3475
 11
-75.4823
 21
51.3971
  0
LINE
  8
0
 10
-75.4823
 20
51.3971
 11
-74.7278
 21
52.607
  0
LINE
  8
0
 10
-74.7278
 20
52.607
 11
-74.1297
 21
53.9499
  0
LINE
  8
0
 10
-74.1297
 20
53.9499
 11
-73.7025
 21
55.3975
  0
LINE
  8
0
 10
-73.7025
 20
55.3975
 11
-73.4462
 21
56.9499
  0
LINE
  8
0
 10
-73.4462
 20
56.9499
 11
-73.3607
 21
58.607
  0
LINE
  8
0
 10
-73.3607
 20
58.607
 11
-73.4402
 21
60.2436
  0
LINE
  8
0
 10
-73.4402
 20
60.2436
 11
-73.6788
 21
61.7655
  0
LINE
  8
0
 10
-73.6788
 20
61.7655
 11
-74.0762
 21
63.1726
  0
LINE
  8
0
 10
-74.0762
 20
63.1726
 11
-74.6328
 21
64.465
  0
LINE
  8
0
 10
-74.6328
 20
64.465
 11
-75.3418
 21
65.6247
  0
LINE
  8
0
 10
-75.3418
 20
65.6247
 11
-76.1978
 21
66.634
  0
LINE
  8
0
 10
-76.1978
 20
66.634
 11
-77.2008
 21
67.4927
  0
LINE
  8
0
 10
-77.2008
 20
67.4927
 11
-78.3508
 21
68.201
  0
LINE
  8
0
 10
-78.3508
 20
68.201
 11
-78.4928
 21
68.2771
  0
LINE
  8
0
 10
-78.4928
 20
68.2771
 11
-78.6328
 21
68.3472
  0
LINE
  8
0
 10
-78.6328
 20
68.3472
 11
-78.7708
 21
68.4116
  0
LINE
  8
0
 10
-78.7708
 20
68.4116
 11
-78.9068
 21
68.47
  0
LINE
  8
0
 10
-78.9068
 20
68.47
 11
-79.173
 21
68.577
  0
LINE
  8
0
 10
-79.173
 20
68.577
 11
-79.4317
 21
68.676
  0
LINE
  8
0
 10
-79.4317
 20
68.676
 11
-79.7373
 21
68.7791
  0
LINE
  8
0
 10
-79.7373
 20
68.7791
 11
-80.051
 21
68.8662
  0
LINE
  8
0
 10
-80.051
 20
68.8662
 11
-80.3728
 21
68.9376
  0
LINE
  8
0
 10
-80.3728
 20
68.9376
 11
-80.7028
 21
68.993
  0
LINE
  8
0
 10
-80.7028
 20
68.993
 11
-81.0522
 21
69.0366
  0
LINE
  8
0
 10
-81.0522
 20
69.0366
 11
-81.4335
 21
69.0722
  0
LINE
  8
0
 10
-81.4335
 20
69.0722
 11
-81.8467
 21
69.1001
  0
LINE
  8
0
 10
-81.8467
 20
69.1001
 11
-82.2917
 21
69.12
  0
LINE
  8
0
 10
-82.2917
 20
69.12
 11
-82.2917
 21
67.377
  0
LINE
  8
0
 10
-82.2917
 20
67.377
 11
-81.83
 21
67.2678
  0
LINE
  8
0
 10
-81.83
 20
67.2678
 11
-81.4427
 21
67.0992
  0
LINE
  8
0
 10
-81.4427
 20
67.0992
 11
-81.13
 21
66.8713
  0
LINE
  8
0
 10
-81.13
 20
66.8713
 11
-80.8918
 21
66.584
  0
LINE
  8
0
 10
-80.8918
 20
66.584
 11
-80.7154
 21
66.2254
  0
LINE
  8
0
 10
-80.7154
 20
66.2254
 11
-80.5895
 21
65.7835
  0
LINE
  8
0
 10
-80.5895
 20
65.7835
 11
-80.5139
 21
65.2584
  0
LINE
  8
0
 10
-80.5139
 20
65.2584
 11
-80.4888
 21
64.65
  0
LINE
  8
0
 10
-80.4888
 20
64.65
 11
-80.4888
 21
52.376
  0
LINE
  8
0
 10
-80.4888
 20
52.376
 11
-80.5099
 21
51.719
  0
LINE
  8
0
 10
-80.5099
 20
51.719
 11
-80.5733
 21
51.175
  0
LINE
  8
0
 10
-80.5733
 20
51.175
 11
-80.6789
 21
50.744
  0
LINE
  8
0
 10
-80.6789
 20
50.744
 11
-80.8268
 21
50.426
  0
LINE
  8
0
 10
-80.8268
 20
50.426
 11
-81.0451
 21
50.1833
  0
LINE
  8
0
 10
-81.0451
 20
50.1833
 11
-81.362
 21
49.9782
  0
LINE
  8
0
 10
-81.362
 20
49.9782
 11
-81.7776
 21
49.8108
  0
LINE
  8
0
 10
-81.7776
 20
49.8108
 11
-82.2917
 21
49.681
  0
LINE
  8
0
 10
-82.2917
 20
49.681
 11
-82.2917
 21
48
  0
LINE
  8
0
 10
-82.2917
 20
48
 11
-81.8221
 21
48.0039
  0
LINE
  8
0
 10
-32.1957
 20
54.848
 11
-40.4437
 21
69.12
  0
LINE
  8
0
 10
-40.4437
 20
69.12
 11
-47.4879
 21
69.087
  0
LINE
  8
0
 10
-47.4879
 20
69.087
 11
-47.7154
 21
69.084
  0
LINE
  8
0
 10
-47.7154
 20
69.084
 11
-47.9154
 21
69.079
  0
LINE
  8
0
 10
-47.9154
 20
69.079
 11
-48.0877
 21
69.072
  0
LINE
  8
0
 10
-48.0877
 20
69.072
 11
-48.2362
 21
69.0611
  0
LINE
  8
0
 10
-48.2362
 20
69.0611
 11
-48.3649
 21
69.0442
  0
LINE
  8
0
 10
-48.3649
 20
69.0442
 11
-48.4737
 21
69.0216
  0
LINE
  8
0
 10
-48.4737
 20
69.0216
 11
-48.5627
 21
68.993
  0
LINE
  8
0
 10
-48.5627
 20
68.993
 11
-48.6707
 21
68.9506
  0
LINE
  8
0
 10
-48.6707
 20
68.9506
 11
-48.7727
 21
68.8862
  0
LINE
  8
0
 10
-48.7727
 20
68.8862
 11
-48.8687
 21
68.8
  0
LINE
  8
0
 10
-48.8687
 20
68.8
 11
-48.9587
 21
68.692
  0
LINE
  8
0
 10
-48.9587
 20
68.692
 11
-49.0348
 21
68.5705
  0
LINE
  8
0
 10
-49.0348
 20
68.5705
 11
-49.0892
 21
68.443
  0
LINE
  8
0
 10
-49.0892
 20
68.443
 11
-49.1218
 21
68.3095
  0
LINE
  8
0
 10
-49.1218
 20
68.3095
 11
-49.1327
 21
68.17
  0
LINE
  8
0
 10
-49.1327
 20
68.17
 11
-49.1238
 21
68.046
  0
LINE
  8
0
 10
-49.1238
 20
68.046
 11
-49.0972
 21
67.928
  0
LINE
  8
0
 10
-49.0972
 20
67.928
 11
-49.0528
 21
67.816
  0
LINE
  8
0
 10
-49.0528
 20
67.816
 11
-48.9907
 21
67.71
  0
LINE
  8
0
 10
-48.9907
 20
67.71
 11
-48.9143
 21
67.6179
  0
LINE
  8
0
 10
-48.9143
 20
67.6179
 11
-48.8282
 21
67.5475
  0
LINE
  8
0
 10
-48.8282
 20
67.5475
 11
-48.7323
 21
67.4989
  0
LINE
  8
0
 10
-48.7323
 20
67.4989
 11
-48.6267
 21
67.472
  0
LINE
  8
0
 10
-48.6267
 20
67.472
 11
-48.0557
 21
67.225
  0
LINE
  8
0
 10
-48.0557
 20
67.225
 11
-47.9054
 21
67.163
  0
LINE
  8
0
 10
-47.9054
 20
67.163
 11
-47.7707
 21
67.101
  0
LINE
  8
0
 10
-47.7707
 20
67.101
 11
-47.7072
 21
67.0662
  0
LINE
  8
0
 10
-47.7072
 20
67.0662
 11
-47.6439
 21
67.0237
  0
LINE
  8
0
 10
-47.6439
 20
67.0237
 11
-47.5807
 21
66.9737
  0
LINE
  8
0
 10
-47.5807
 20
66.9737
 11
-47.5177
 21
66.916
  0
LINE
  8
0
 10
-47.5177
 20
66.916
 11
-47.4532
 21
66.8492
  0
LINE
  8
0
 10
-47.4532
 20
66.8492
 11
-47.3869
 21
66.7727
  0
LINE
  8
0
 10
-47.3869
 20
66.7727
 11
-47.3187
 21
66.6867
  0
LINE
  8
0
 10
-47.3187
 20
66.6867
 11
-47.2487
 21
66.591
  0
LINE
  8
0
 10
-47.2487
 20
66.591
 11
-47.0077
 21
66.2462
  0
LINE
  8
0
 10
-47.0077
 20
66.2462
 11
-46.9157
 21
66.112
  0
LINE
  8
0
 10
-46.9157
 20
66.112
 11
-36.4147
 21
48
  0
LINE
  8
0
 10
-36.4147
 20
48
 11
-32.1957
 21
48
  0
LINE
  8
0
 10
-32.1957
 20
48
 11
-32.1957
 21
54.848
  0
LINE
  8
0
 10
-32.1957
 20
64.31
 11
-32.1719
 21
64.8537
  0
LINE
  8
0
 10
-32.1719
 20
64.8537
 11
-32.1007
 21
65.346
  0
LINE
  8
0
 10
-32.1007
 20
65.346
 11
-31.9819
 21
65.7867
  0
LINE
  8
0
 10
-31.9819
 20
65.7867
 11
-31.8157
 21
66.176
  0
LINE
  8
0
 10
-31.8157
 20
66.176
 11
-31.6019
 21
66.5202
  0
LINE
  8
0
 10
-31.6019
 20
66.5202
 11
-31.3407
 21
66.825
  0
LINE
  8
0
 10
-31.3407
 20
66.825
 11
-31.0319
 21
67.0902
  0
LINE
  8
0
 10
-31.0319
 20
67.0902
 11
-30.6757
 21
67.316
  0
LINE
  8
0
 10
-30.6757
 20
67.316
 11
-30.4417
 21
67.4342
  0
LINE
  8
0
 10
-30.4417
 20
67.4342
 11
-30.2477
 21
67.537
  0
LINE
  8
0
 10
-30.2477
 20
67.537
 11
-30.1656
 21
67.5845
  0
LINE
  8
0
 10
-30.1656
 20
67.5845
 11
-30.0934
 21
67.632
  0
LINE
  8
0
 10
-30.0934
 20
67.632
 11
-30.0311
 21
67.6795
  0
LINE
  8
0
 10
-30.0311
 20
67.6795
 11
-29.9787
 21
67.727
  0
LINE
  8
0
 10
-29.9787
 20
67.727
 11
-29.9351
 21
67.7891
  0
LINE
  8
0
 10
-29.9351
 20
67.7891
 11
-29.8994
 21
67.8492
  0
LINE
  8
0
 10
-29.8994
 20
67.8492
 11
-29.8716
 21
67.9076
  0
LINE
  8
0
 10
-29.8716
 20
67.9076
 11
-29.8517
 21
67.964
  0
LINE
  8
0
 10
-29.8517
 20
67.964
 11
-29.8377
 21
68.0224
  0
LINE
  8
0
 10
-29.8377
 20
68.0224
 11
-29.8277
 21
68.0867
  0
LINE
  8
0
 10
-29.8277
 20
68.0867
 11
-29.8217
 21
68.1569
  0
LINE
  8
0
 10
-29.8217
 20
68.1569
 11
-29.8197
 21
68.233
  0
LINE
  8
0
 10
-29.8197
 20
68.233
 11
-29.8385
 21
68.44
  0
LINE
  8
0
 10
-29.8385
 20
68.44
 11
-29.8949
 21
68.6172
  0
LINE
  8
0
 10
-29.8949
 20
68.6172
 11
-29.989
 21
68.7646
  0
LINE
  8
0
 10
-29.989
 20
68.7646
 11
-30.1207
 21
68.882
  0
LINE
  8
0
 10
-30.1207
 20
68.882
 11
-30.294
 21
68.9741
  0
LINE
  8
0
 10
-30.294
 20
68.9741
 11
-30.5129
 21
69.0445
  0
LINE
  8
0
 10
-30.5129
 20
69.0445
 11
-30.7775
 21
69.0931
  0
LINE
  8
0
 10
-30.7775
 20
69.0931
 11
-31.0877
 21
69.12
  0
LINE
  8
0
 10
-31.0877
 20
69.12
 11
-34.9517
 21
69.088
  0
LINE
  8
0
 10
-34.9517
 20
69.088
 11
-35.2319
 21
69.0761
  0
LINE
  8
0
 10
-35.2319
 20
69.0761
 11
-35.4707
 21
69.0405
  0
LINE
  8
0
 10
-35.4707
 20
69.0405
 11
-35.6679
 21
68.9811
  0
LINE
  8
0
 10
-35.6679
 20
68.9811
 11
-35.8237
 21
68.898
  0
LINE
  8
0
 10
-35.8237
 20
68.898
 11
-35.9414
 21
68.7891
  0
LINE
  8
0
 10
-35.9414
 20
68.7891
 11
-36.0254
 21
68.6525
  0
LINE
  8
0
 10
-36.0254
 20
68.6525
 11
-36.0759
 21
68.4881
  0
LINE
  8
0
 10
-36.0759
 20
68.4881
 11
-36.0927
 21
68.296
  0
LINE
  8
0
 10
-36.0927
 20
68.296
 11
-36.0867
 21
68.1614
  0
LINE
  8
0
 10
-36.0867
 20
68.1614
 11
-36.0689
 21
68.0427
  0
LINE
  8
0
 10
-36.0689
 20
68.0427
 11
-36.0392
 21
67.9399
  0
LINE
  8
0
 10
-36.0392
 20
67.9399
 11
-35.9977
 21
67.853
  0
LINE
  8
0
 10
-35.9977
 20
67.853
 11
-35.9422
 21
67.7759
  0
LINE
  8
0
 10
-35.9422
 20
67.7759
 11
-35.8709
 21
67.7027
  0
LINE
  8
0
 10
-35.8709
 20
67.7027
 11
-35.7837
 21
67.6334
  0
LINE
  8
0
 10
-35.7837
 20
67.6334
 11
-35.6807
 21
67.568
  0
LINE
  8
0
 10
-35.6807
 20
67.568
 11
-35.6637
 21
67.5534
  0
LINE
  8
0
 10
-35.6637
 20
67.5534
 11
-35.6449
 21
67.5407
  0
LINE
  8
0
 10
-35.6449
 20
67.5407
 11
-35.6242
 21
67.5299
  0
LINE
  8
0
 10
-35.6242
 20
67.5299
 11
-35.5787
 21
67.5121
  0
LINE
  8
0
 10
-35.5787
 20
67.5121
 11
-35.5579
 21
67.5012
  0
LINE
  8
0
 10
-35.5579
 20
67.5012
 11
-35.5392
 21
67.4886
  0
LINE
  8
0
 10
-35.5392
 20
67.4886
 11
-35.5227
 21
67.474
  0
LINE
  8
0
 10
-35.5227
 20
67.474
 11
-35.0829
 21
67.2227
  0
LINE
  8
0
 10
-35.0829
 20
67.2227
 11
-34.7144
 21
66.9437
  0
LINE
  8
0
 10
-34.7144
 20
66.9437
 11
-34.4174
 21
66.6372
  0
LINE
  8
0
 10
-34.4174
 20
66.6372
 11
-34.1917
 21
66.303
  0
LINE
  8
0
 10
-34.1917
 20
66.303
 11
-34.0254
 21
65.9194
  0
LINE
  8
0
 10
-34.0254
 20
65.9194
 11
-33.9067
 21
65.4647
  0
LINE
  8
0
 10
-33.9067
 20
65.4647
 11
-33.8354
 21
64.9389
  0
LINE
  8
0
 10
-33.8354
 20
64.9389
 11
-33.8117
 21
64.342
  0
LINE
  8
0
 10
-33.8117
 20
64.342
 11
-33.8117
 21
60.071
  0
LINE
  8
0
 10
-33.8117
 20
60.071
 11
-32.1957
 21
57.319
  0
LINE
  8
0
 10
-32.1957
 20
57.319
 11
-32.1957
 21
64.31
  0
LINE
  8
0
 10
-22.2382
 20
69.12
 11
-26.7362
 21
69.12
  0
LINE
  8
0
 10
-26.7362
 20
69.12
 11
-25.9762
 21
60.672
  0
LINE
  8
0
 10
-25.9762
 20
60.672
 11
-22.9982
 21
60.672
  0
LINE
  8
0
 10
-22.9982
 20
60.672
 11
-22.2382
 21
69.12
  0
LINE
  8
0
 10
-6.79381
 20
48.0129
 11
-6.50388
 21
48.0515
  0
LINE
  8
0
 10
-6.50388
 20
48.0515
 11
-6.26331
 21
48.1159
  0
LINE
  8
0
 10
-6.26331
 20
48.1159
 11
-6.07213
 21
48.206
  0
LINE
  8
0
 10
-6.07213
 20
48.206
 11
-5.92644
 21
48.3238
  0
LINE
  8
0
 10
-5.92644
 20
48.3238
 11
-5.82237
 21
48.4712
  0
LINE
  8
0
 10
-5.82237
 20
48.4712
 11
-5.75993
 21
48.6483
  0
LINE
  8
0
 10
-5.75993
 20
48.6483
 11
-5.73912
 21
48.855
  0
LINE
  8
0
 10
-5.73912
 20
48.855
 11
-5.752
 21
49.0066
  0
LINE
  8
0
 10
-5.752
 20
49.0066
 11
-5.79062
 21
49.1442
  0
LINE
  8
0
 10
-5.79062
 20
49.1442
 11
-5.855
 21
49.2681
  0
LINE
  8
0
 10
-5.855
 20
49.2681
 11
-5.94511
 21
49.378
  0
LINE
  8
0
 10
-5.94511
 20
49.378
 11
-6.05705
 21
49.4721
  0
LINE
  8
0
 10
-6.05705
 20
49.4721
 11
-6.18687
 21
49.5482
  0
LINE
  8
0
 10
-6.18687
 20
49.5482
 11
-6.33456
 21
49.6066
  0
LINE
  8
0
 10
-6.33456
 20
49.6066
 11
-6.50012
 21
49.647
  0
LINE
  8
0
 10
-6.50012
 20
49.647
 11
-6.59113
 21
49.6747
  0
LINE
  8
0
 10
-6.59113
 20
49.6747
 11
-6.75713
 21
49.714
  0
LINE
  8
0
 10
-6.75713
 20
49.714
 11
-6.84811
 21
49.742
  0
LINE
  8
0
 10
-6.84811
 20
49.742
 11
-7.09286
 21
49.825
  0
LINE
  8
0
 10
-7.09286
 20
49.825
 11
-7.28812
 21
49.916
  0
LINE
  8
0
 10
-7.28812
 20
49.916
 11
-7.43387
 21
50.015
  0
LINE
  8
0
 10
-7.43387
 20
50.015
 11
-7.53012
 21
50.122
  0
LINE
  8
0
 10
-7.53012
 20
50.122
 11
-7.59224
 21
50.2567
  0
LINE
  8
0
 10
-7.59224
 20
50.2567
 11
-7.63663
 21
50.4387
  0
LINE
  8
0
 10
-7.63663
 20
50.4387
 11
-7.66325
 21
50.6682
  0
LINE
  8
0
 10
-7.66325
 20
50.6682
 11
-7.67212
 21
50.945
  0
LINE
  8
0
 10
-7.67212
 20
50.945
 11
-7.67212
 21
69.12
  0
LINE
  8
0
 10
-7.67212
 20
69.12
 11
-14.5801
 21
69.12
  0
LINE
  8
0
 10
-14.5801
 20
69.12
 11
-14.5801
 21
50.914
  0
LINE
  8
0
 10
-14.5801
 20
50.914
 11
-14.5881
 21
50.6507
  0
LINE
  8
0
 10
-14.5881
 20
50.6507
 11
-14.6119
 21
50.431
  0
LINE
  8
0
 10
-14.6119
 20
50.431
 11
-14.6516
 21
50.2547
  0
LINE
  8
0
 10
-14.6516
 20
50.2547
 11
-14.7071
 21
50.122
  0
LINE
  8
0
 10
-14.7071
 20
50.122
 11
-14.7963
 21
50.015
  0
LINE
  8
0
 10
-14.7963
 20
50.015
 11
-14.9369
 21
49.916
  0
LINE
  8
0
 10
-14.9369
 20
49.916
 11
-15.1288
 21
49.825
  0
LINE
  8
0
 10
-15.1288
 20
49.825
 11
-15.3721
 21
49.742
  0
LINE
  8
0
 10
-15.3721
 20
49.742
 11
-15.4061
 21
49.727
  0
LINE
  8
0
 10
-15.4061
 20
49.727
 11
-15.4439
 21
49.714
  0
LINE
  8
0
 10
-15.4439
 20
49.714
 11
-15.4856
 21
49.703
  0
LINE
  8
0
 10
-15.4856
 20
49.703
 11
-15.6339
 21
49.6747
  0
LINE
  8
0
 10
-15.6339
 20
49.6747
 11
-15.9167
 21
49.6066
  0
LINE
  8
0
 10
-15.9167
 20
49.6066
 11
-16.0614
 21
49.5482
  0
LINE
  8
0
 10
-16.0614
 20
49.5482
 11
-16.1862
 21
49.4721
  0
LINE
  8
0
 10
-16.1862
 20
49.4721
 11
-16.2911
 21
49.378
  0
LINE
  8
0
 10
-16.2911
 20
49.378
 11
-16.3743
 21
49.2681
  0
LINE
  8
0
 10
-16.3743
 20
49.2681
 11
-16.4336
 21
49.1442
  0
LINE
  8
0
 10
-16.4336
 20
49.1442
 11
-16.4693
 21
49.0066
  0
LINE
  8
0
 10
-16.4693
 20
49.0066
 11
-16.4811
 21
48.855
  0
LINE
  8
0
 10
-16.4811
 20
48.855
 11
-16.4604
 21
48.6483
  0
LINE
  8
0
 10
-16.4604
 20
48.6483
 11
-16.3981
 21
48.4712
  0
LINE
  8
0
 10
-16.3981
 20
48.4712
 11
-16.2944
 21
48.3238
  0
LINE
  8
0
 10
-16.2944
 20
48.3238
 11
-16.1491
 21
48.206
  0
LINE
  8
0
 10
-16.1491
 20
48.206
 11
-15.9599
 21
48.1159
  0
LINE
  8
0
 10
-15.9599
 20
48.1159
 11
-15.7251
 21
48.0515
  0
LINE
  8
0
 10
-15.7251
 20
48.0515
 11
-15.4449
 21
48.0129
  0
LINE
  8
0
 10
-15.4449
 20
48.0129
 11
-15.1191
 21
48
  0
LINE
  8
0
 10
-15.1191
 20
48
 11
-7.13312
 21
48
  0
LINE
  8
0
 10
-7.13312
 20
48
 11
-6.79381
 21
48.0129
  0
LINE
  8
0
 10
-3.06963
 20
61.7248
 11
-2.89212
 21
61.7782
  0
LINE
  8
0
 10
-2.89212
 20
61.7782
 11
-2.73462
 21
61.8673
  0
LINE
  8
0
 10
-2.73462
 20
61.8673
 11
-2.59712
 21
61.992
  0
LINE
  8
0
 10
-2.59712
 20
61.992
 11
-2.48512
 21
62.1464
  0
LINE
  8
0
 10
-2.48512
 20
62.1464
 11
-2.40512
 21
62.3245
  0
LINE
  8
0
 10
-2.40512
 20
62.3245
 11
-2.35712
 21
62.5264
  0
LINE
  8
0
 10
-2.35712
 20
62.5264
 11
-2.34113
 21
62.752
  0
LINE
  8
0
 10
-2.34113
 20
62.752
 11
-2.34113
 21
69.12
  0
LINE
  8
0
 10
-2.34113
 20
69.12
 11
-6.38612
 21
69.12
  0
LINE
  8
0
 10
-6.38612
 20
69.12
 11
-6.38612
 21
67.219
  0
LINE
  8
0
 10
-6.38612
 20
67.219
 11
-6.01324
 21
66.9688
  0
LINE
  8
0
 10
-6.01324
 20
66.9688
 11
-5.67763
 21
66.661
  0
LINE
  8
0
 10
-5.67763
 20
66.661
 11
-5.37924
 21
66.2957
  0
LINE
  8
0
 10
-5.37924
 20
66.2957
 11
-5.11812
 21
65.873
  0
LINE
  8
0
 10
-5.11812
 20
65.873
 11
-4.89182
 21
65.3967
  0
LINE
  8
0
 10
-4.89182
 20
65.3967
 11
-4.69887
 21
64.871
  0
LINE
  8
0
 10
-4.69887
 20
64.871
 11
-4.53931
 21
64.2957
  0
LINE
  8
0
 10
-4.53931
 20
64.2957
 11
-4.41312
 21
63.671
  0
LINE
  8
0
 10
-4.41312
 20
63.671
 11
-4.25612
 21
62.689
  0
LINE
  8
0
 10
-4.25612
 20
62.689
 11
-4.19818
 21
62.4779
  0
LINE
  8
0
 10
-4.19818
 20
62.4779
 11
-4.12038
 21
62.2887
  0
LINE
  8
0
 10
-4.12038
 20
62.2887
 11
-4.02269
 21
62.1214
  0
LINE
  8
0
 10
-4.02269
 20
62.1214
 11
-3.90512
 21
61.976
  0
LINE
  8
0
 10
-3.90512
 20
61.976
 11
-3.76962
 21
61.8583
  0
LINE
  8
0
 10
-3.76962
 20
61.8583
 11
-3.61812
 21
61.7742
  0
LINE
  8
0
 10
-3.61812
 20
61.7742
 11
-3.45062
 21
61.7238
  0
LINE
  8
0
 10
-3.45062
 20
61.7238
 11
-3.26712
 21
61.707
  0
LINE
  8
0
 10
-3.26712
 20
61.707
 11
-3.06963
 21
61.7248
  0
LINE
  8
0
 10
-18.7982
 20
61.6908
 11
-18.6304
 21
61.7382
  0
LINE
  8
0
 10
-18.6304
 20
61.7382
 11
-18.4787
 21
61.8173
  0
LINE
  8
0
 10
-18.4787
 20
61.8173
 11
-18.3431
 21
61.928
  0
LINE
  8
0
 10
-18.3431
 20
61.928
 11
-18.2271
 21
62.0708
  0
LINE
  8
0
 10
-18.2271
 20
62.0708
 11
-18.1351
 21
62.2452
  0
LINE
  8
0
 10
-18.1351
 20
62.2452
 11
-18.0671
 21
62.4513
  0
LINE
  8
0
 10
-18.0671
 20
62.4513
 11
-18.0231
 21
62.689
  0
LINE
  8
0
 10
-18.0231
 20
62.689
 11
-17.8671
 21
63.607
  0
LINE
  8
0
 10
-17.8671
 20
63.607
 11
-17.727
 21
64.2457
  0
LINE
  8
0
 10
-17.727
 20
64.2457
 11
-17.5576
 21
64.831
  0
LINE
  8
0
 10
-17.5576
 20
64.831
 11
-17.359
 21
65.3627
  0
LINE
  8
0
 10
-17.359
 20
65.3627
 11
-17.1311
 21
65.841
  0
LINE
  8
0
 10
-17.1311
 20
65.841
 11
-16.8701
 21
66.2657
  0
LINE
  8
0
 10
-16.8701
 20
66.2657
 11
-16.5719
 21
66.637
  0
LINE
  8
0
 10
-16.5719
 20
66.637
 11
-16.2366
 21
66.9547
  0
LINE
  8
0
 10
-16.2366
 20
66.9547
 11
-15.8641
 21
67.219
  0
LINE
  8
0
 10
-15.8641
 20
67.219
 11
-15.8641
 21
69.12
  0
LINE
  8
0
 10
-15.8641
 20
69.12
 11
-19.9091
 21
69.12
  0
LINE
  8
0
 10
-19.9091
 20
69.12
 11
-19.9091
 21
62.689
  0
LINE
  8
0
 10
-19.9091
 20
62.689
 11
-19.8932
 21
62.4769
  0
LINE
  8
0
 10
-19.8932
 20
62.4769
 11
-19.8454
 21
62.2847
  0
LINE
  8
0
 10
-19.8454
 20
62.2847
 11
-19.7657
 21
62.1124
  0
LINE
  8
0
 10
-19.7657
 20
62.1124
 11
-19.6541
 21
61.96
  0
LINE
  8
0
 10
-19.6541
 20
61.96
 11
-19.5161
 21
61.8353
  0
LINE
  8
0
 10
-19.5161
 20
61.8353
 11
-19.3581
 21
61.7462
  0
LINE
  8
0
 10
-19.3581
 20
61.7462
 11
-19.1801
 21
61.6928
  0
LINE
  8
0
 10
-19.1801
 20
61.6928
 11
-18.9821
 21
61.675
  0
LINE
  8
0
 10
-18.9821
 20
61.675
 11
-18.7982
 21
61.6908
  0
LINE
  8
0
 10
-43.9169
 20
48.0109
 11
-43.6327
 21
48.0435
  0
LINE
  8
0
 10
-43.6327
 20
48.0435
 11
-43.4019
 21
48.0979
  0
LINE
  8
0
 10
-43.4019
 20
48.0979
 11
-43.2247
 21
48.174
  0
LINE
  8
0
 10
-43.2247
 20
48.174
 11
-43.093
 21
48.2759
  0
LINE
  8
0
 10
-43.093
 20
48.2759
 11
-42.9989
 21
48.4075
  0
LINE
  8
0
 10
-42.9989
 20
48.4075
 11
-42.9425
 21
48.5689
  0
LINE
  8
0
 10
-42.9425
 20
48.5689
 11
-42.9237
 21
48.76
  0
LINE
  8
0
 10
-42.9237
 20
48.76
 11
-42.9296
 21
48.868
  0
LINE
  8
0
 10
-42.9296
 20
48.868
 11
-42.9474
 21
48.97
  0
LINE
  8
0
 10
-42.9474
 20
48.97
 11
-42.9771
 21
49.066
  0
LINE
  8
0
 10
-42.9771
 20
49.066
 11
-43.0187
 21
49.156
  0
LINE
  8
0
 10
-43.0187
 20
49.156
 11
-43.0741
 21
49.2424
  0
LINE
  8
0
 10
-43.0741
 20
49.2424
 11
-43.1454
 21
49.3267
  0
LINE
  8
0
 10
-43.1454
 20
49.3267
 11
-43.2326
 21
49.4089
  0
LINE
  8
0
 10
-43.2326
 20
49.4089
 11
-43.3357
 21
49.489
  0
LINE
  8
0
 10
-43.3357
 20
49.489
 11
-43.7797
 21
49.711
  0
LINE
  8
0
 10
-43.7797
 20
49.711
 11
-44.1489
 21
49.9489
  0
LINE
  8
0
 10
-44.1489
 20
49.9489
 11
-44.4647
 21
50.2185
  0
LINE
  8
0
 10
-44.4647
 20
50.2185
 11
-44.7269
 21
50.5199
  0
LINE
  8
0
 10
-44.7269
 20
50.5199
 11
-44.9357
 21
50.853
  0
LINE
  8
0
 10
-44.9357
 20
50.853
 11
-45.0949
 21
51.2278
  0
LINE
  8
0
 10
-45.0949
 20
51.2278
 11
-45.2087
 21
51.6542
  0
LINE
  8
0
 10
-45.2087
 20
51.6542
 11
-45.2769
 21
52.1323
  0
LINE
  8
0
 10
-45.2769
 20
52.1323
 11
-45.2997
 21
52.662
  0
LINE
  8
0
 10
-45.2997
 20
52.662
 11
-45.2997
 21
60.975
  0
LINE
  8
0
 10
-45.2997
 20
60.975
 11
-46.9157
 21
63.736
  0
LINE
  8
0
 10
-46.9157
 20
63.736
 11
-46.9157
 21
52.63
  0
LINE
  8
0
 10
-46.9157
 20
52.63
 11
-46.9384
 21
52.1123
  0
LINE
  8
0
 10
-46.9384
 20
52.1123
 11
-47.0067
 21
51.6382
  0
LINE
  8
0
 10
-47.0067
 20
51.6382
 11
-47.1204
 21
51.2078
  0
LINE
  8
0
 10
-47.1204
 20
51.2078
 11
-47.2797
 21
50.821
  0
LINE
  8
0
 10
-47.2797
 20
50.821
 11
-47.4865
 21
50.4739
  0
LINE
  8
0
 10
-47.4865
 20
50.4739
 11
-47.7429
 21
50.1625
  0
LINE
  8
0
 10
-47.7429
 20
50.1625
 11
-48.049
 21
49.8869
  0
LINE
  8
0
 10
-48.049
 20
49.8869
 11
-48.4047
 21
49.647
  0
LINE
  8
0
 10
-48.4047
 20
49.647
 11
-48.6342
 21
49.5007
  0
LINE
  8
0
 10
-48.6342
 20
49.5007
 11
-48.8167
 21
49.378
  0
LINE
  8
0
 10
-48.8167
 20
49.378
 11
-48.8917
 21
49.3235
  0
LINE
  8
0
 10
-48.8917
 20
49.3235
 11
-48.9589
 21
49.271
  0
LINE
  8
0
 10
-48.9589
 20
49.271
 11
-49.0182
 21
49.2205
  0
LINE
  8
0
 10
-49.0182
 20
49.2205
 11
-49.0697
 21
49.172
  0
LINE
  8
0
 10
-49.0697
 20
49.172
 11
-49.0992
 21
49.1385
  0
LINE
  8
0
 10
-49.0992
 20
49.1385
 11
-49.1249
 21
49.101
  0
LINE
  8
0
 10
-49.1249
 20
49.101
 11
-49.1467
 21
49.0595
  0
LINE
  8
0
 10
-49.1467
 20
49.0595
 11
-49.1647
 21
49.014
  0
LINE
  8
0
 10
-49.1647
 20
49.014
 11
-49.1787
 21
48.9645
  0
LINE
  8
0
 10
-49.1787
 20
48.9645
 11
-49.1887
 21
48.911
  0
LINE
  8
0
 10
-49.1887
 20
48.911
 11
-49.1947
 21
48.8535
  0
LINE
  8
0
 10
-49.1947
 20
48.8535
 11
-49.1967
 21
48.792
  0
LINE
  8
0
 10
-49.1967
 20
48.792
 11
-49.1749
 21
48.5999
  0
LINE
  8
0
 10
-49.1749
 20
48.5999
 11
-49.1097
 21
48.4355
  0
LINE
  8
0
 10
-49.1097
 20
48.4355
 11
-49.0009
 21
48.2989
  0
LINE
  8
0
 10
-49.0009
 20
48.2989
 11
-48.8487
 21
48.19
  0
LINE
  8
0
 10
-48.8487
 20
48.19
 11
-48.6524
 21
48.1069
  0
LINE
  8
0
 10
-48.6524
 20
48.1069
 11
-48.4127
 21
48.0475
  0
LINE
  8
0
 10
-48.4127
 20
48.0475
 11
-48.1294
 21
48.0119
  0
LINE
  8
0
 10
-48.1294
 20
48.0119
 11
-47.8027
 21
48
  0
LINE
  8
0
 10
-47.8027
 20
48
 11
-44.2547
 21
48
  0
LINE
  8
0
 10
-44.2547
 20
48
 11
-43.9169
 21
48.0109
  0
LINE
  8
0
 10
25.4176
 20
54.273
 11
25.4078
 21
54.5232
  0
LINE
  8
0
 10
25.4078
 20
54.5232
 11
25.3784
 21
54.7357
  0
LINE
  8
0
 10
25.3784
 20
54.7357
 11
25.3293
 21
54.9107
  0
LINE
  8
0
 10
25.3293
 20
54.9107
 11
25.2606
 21
55.048
  0
LINE
  8
0
 10
25.2606
 20
55.048
 11
25.1665
 21
55.1521
  0
LINE
  8
0
 10
25.1665
 20
55.1521
 11
25.0411
 21
55.2265
  0
LINE
  8
0
 10
25.0411
 20
55.2265
 11
24.8845
 21
55.2711
  0
LINE
  8
0
 10
24.8845
 20
55.2711
 11
24.6966
 21
55.286
  0
LINE
  8
0
 10
24.6966
 20
55.286
 11
24.562
 21
55.2791
  0
LINE
  8
0
 10
24.562
 20
55.2791
 11
24.4411
 21
55.2582
  0
LINE
  8
0
 10
24.4411
 20
55.2582
 11
24.334
 21
55.2236
  0
LINE
  8
0
 10
24.334
 20
55.2236
 11
24.2406
 21
55.175
  0
LINE
  8
0
 10
24.2406
 20
55.175
 11
24.1555
 21
55.1051
  0
LINE
  8
0
 10
24.1555
 20
55.1051
 11
24.0724
 21
55.0052
  0
LINE
  8
0
 10
24.0724
 20
55.0052
 11
23.991
 21
54.8755
  0
LINE
  8
0
 10
23.991
 20
54.8755
 11
23.9116
 21
54.716
  0
LINE
  8
0
 10
23.9116
 20
54.716
 11
23.8805
 21
54.6476
  0
LINE
  8
0
 10
23.8805
 20
54.6476
 11
23.8493
 21
54.5692
  0
LINE
  8
0
 10
23.8493
 20
54.5692
 11
23.818
 21
54.481
  0
LINE
  8
0
 10
23.818
 20
54.481
 11
23.7532
 21
54.2774
  0
LINE
  8
0
 10
23.7532
 20
54.2774
 11
23.6747
 21
54.0479
  0
LINE
  8
0
 10
23.6747
 20
54.0479
 11
23.6296
 21
53.924
  0
LINE
  8
0
 10
23.6296
 20
53.924
 11
23.4226
 21
53.3092
  0
LINE
  8
0
 10
23.4226
 20
53.3092
 11
23.1836
 21
52.732
  0
LINE
  8
0
 10
23.1836
 20
52.732
 11
22.9126
 21
52.1922
  0
LINE
  8
0
 10
22.9126
 20
52.1922
 11
22.6096
 21
51.69
  0
LINE
  8
0
 10
22.6096
 20
51.69
 11
22.2811
 21
51.2377
  0
LINE
  8
0
 10
22.2811
 20
51.2377
 11
21.9326
 21
50.8467
  0
LINE
  8
0
 10
21.9326
 20
50.8467
 11
21.5641
 21
50.5172
  0
LINE
  8
0
 10
21.5641
 20
50.5172
 11
21.1756
 21
50.249
  0
LINE
  8
0
 10
21.1756
 20
50.249
 11
21.1606
 21
50.248
  0
LINE
  8
0
 10
21.1606
 20
50.248
 11
21.1476
 21
50.245
  0
LINE
  8
0
 10
21.1476
 20
50.245
 11
21.1366
 21
50.24
  0
LINE
  8
0
 10
21.1366
 20
50.24
 11
21.0796
 21
50.186
  0
LINE
  8
0
 10
21.0796
 20
50.186
 11
20.9185
 21
50.1099
  0
LINE
  8
0
 10
20.9185
 20
50.1099
 11
20.7534
 21
50.0397
  0
LINE
  8
0
 10
20.7534
 20
50.0397
 11
20.584
 21
49.9754
  0
LINE
  8
0
 10
20.584
 20
49.9754
 11
20.4106
 21
49.917
  0
LINE
  8
0
 10
20.4106
 20
49.917
 11
20.2196
 21
49.8644
  0
LINE
  8
0
 10
20.2196
 20
49.8644
 11
19.9966
 21
49.8177
  0
LINE
  8
0
 10
19.9966
 20
49.8177
 11
19.7416
 21
49.7769
  0
LINE
  8
0
 10
19.7416
 20
49.7769
 11
19.4546
 21
49.742
  0
LINE
  8
0
 10
19.4546
 20
49.742
 11
19.4546
 21
48
  0
LINE
  8
0
 10
19.4546
 20
48
 11
25.4176
 21
48
  0
LINE
  8
0
 10
25.4176
 20
48
 11
25.4176
 21
54.273
  0
LINE
  8
0
 10
-3.72612
 20
24.7874
 11
-2.75674
 21
25.0677
  0
LINE
  8
0
 10
-2.75674
 20
25.0677
 11
-1.89212
 21
25.5069
  0
LINE
  8
0
 10
-1.89212
 20
25.5069
 11
-1.13225
 21
26.105
  0
LINE
  8
0
 10
-1.13225
 20
26.105
 11
-0.512741
 21
26.8257
  0
LINE
  8
0
 10
-0.512741
 20
26.8257
 11
-0.0702515
 21
27.6317
  0
LINE
  8
0
 10
-0.0702515
 20
27.6317
 11
0.195236
 21
28.5232
  0
LINE
  8
0
 10
0.195236
 20
28.5232
 11
0.283737
 21
29.5
  0
LINE
  8
0
 10
0.283737
 20
29.5
 11
0.261612
 21
29.9817
  0
LINE
  8
0
 10
0.261612
 20
29.9817
 11
0.195236
 21
30.44
  0
LINE
  8
0
 10
0.195236
 20
30.44
 11
0.08461
 21
30.8747
  0
LINE
  8
0
 10
0.08461
 20
30.8747
 11
-0.0702515
 21
31.286
  0
LINE
  8
0
 10
-0.0702515
 20
31.286
 11
-0.270126
 21
31.6776
  0
LINE
  8
0
 10
-0.270126
 20
31.6776
 11
-0.516739
 21
32.0532
  0
LINE
  8
0
 10
-0.516739
 20
32.0532
 11
-0.81012
 21
32.4131
  0
LINE
  8
0
 10
-0.81012
 20
32.4131
 11
-1.1813
 21
32.7878
  0
LINE
  8
0
 10
-1.1813
 20
32.7878
 11
-1.2438
 21
32.8453
  0
LINE
  8
0
 10
-1.2438
 20
32.8453
 11
-1.33725
 21
32.9275
  0
LINE
  8
0
 10
-1.33725
 20
32.9275
 11
-1.39925
 21
32.988
  0
LINE
  8
0
 10
-1.39925
 20
32.988
 11
-1.55025
 21
33.114
  0
LINE
  8
0
 10
-1.55025
 20
33.114
 11
-1.71124
 21
33.24
  0
LINE
  8
0
 10
-1.71124
 20
33.24
 11
-1.79688
 21
33.3021
  0
LINE
  8
0
 10
-1.79688
 20
33.3021
 11
-1.88774
 21
33.3615
  0
LINE
  8
0
 10
-1.88774
 20
33.3615
 11
-1.98387
 21
33.4181
  0
LINE
  8
0
 10
-1.98387
 20
33.4181
 11
-2.32974
 21
33.6032
  0
LINE
  8
0
 10
-2.32974
 20
33.6032
 11
-2.60524
 21
33.745
  0
LINE
  8
0
 10
-2.60524
 20
33.745
 11
-2.92149
 21
33.9025
  0
LINE
  8
0
 10
-2.92149
 20
33.9025
 11
-3.29025
 21
34.081
  0
LINE
  8
0
 10
-3.29025
 20
34.081
 11
-4.16325
 21
34.459
  0
LINE
  8
0
 10
-4.16325
 20
34.459
 11
-4.43475
 21
34.5782
  0
LINE
  8
0
 10
-4.43475
 20
34.5782
 11
-4.66725
 21
34.6827
  0
LINE
  8
0
 10
-4.66725
 20
34.6827
 11
-4.86075
 21
34.7727
  0
LINE
  8
0
 10
-4.86075
 20
34.7727
 11
-5.01524
 21
34.848
  0
LINE
  8
0
 10
-5.01524
 20
34.848
 11
-5.45224
 21
35.069
  0
LINE
  8
0
 10
-5.45224
 20
35.069
 11
-5.69424
 21
35.2298
  0
LINE
  8
0
 10
-5.69424
 20
35.2298
 11
-5.90125
 21
35.3972
  0
LINE
  8
0
 10
-5.90125
 20
35.3972
 11
-6.07324
 21
35.5713
  0
LINE
  8
0
 10
-6.07324
 20
35.5713
 11
-6.21025
 21
35.752
  0
LINE
  8
0
 10
-6.21025
 20
35.752
 11
-6.3148
 21
35.9432
  0
LINE
  8
0
 10
-6.3148
 20
35.9432
 11
-6.3895
 21
36.1487
  0
LINE
  8
0
 10
-6.3895
 20
36.1487
 11
-6.43431
 21
36.3687
  0
LINE
  8
0
 10
-6.43431
 20
36.3687
 11
-6.44925
 21
36.603
  0
LINE
  8
0
 10
-6.44925
 20
36.603
 11
-6.42737
 21
36.8642
  0
LINE
  8
0
 10
-6.42737
 20
36.8642
 11
-6.36174
 21
37.1017
  0
LINE
  8
0
 10
-6.36174
 20
37.1017
 11
-6.25237
 21
37.3157
  0
LINE
  8
0
 10
-6.25237
 20
37.3157
 11
-6.09924
 21
37.506
  0
LINE
  8
0
 10
-6.09924
 20
37.506
 11
-5.90506
 21
37.6744
  0
LINE
  8
0
 10
-5.90506
 20
37.6744
 11
-5.6725
 21
37.8217
  0
LINE
  8
0
 10
-5.6725
 20
37.8217
 11
-5.40157
 21
37.9479
  0
LINE
  8
0
 10
-5.40157
 20
37.9479
 11
-5.09224
 21
38.053
  0
LINE
  8
0
 10
-5.09224
 20
38.053
 11
-5.09224
 21
39.201
  0
LINE
  8
0
 10
-5.09224
 20
39.201
 11
-6.14493
 21
39.0762
  0
LINE
  8
0
 10
-6.14493
 20
39.0762
 11
-7.08099
 21
38.807
  0
LINE
  8
0
 10
-7.08099
 20
38.807
 11
-7.90044
 21
38.3932
  0
LINE
  8
0
 10
-7.90044
 20
38.3932
 11
-8.60324
 21
37.835
  0
LINE
  8
0
 10
-8.60324
 20
37.835
 11
-9.16719
 21
37.1559
  0
LINE
  8
0
 10
-9.16719
 20
37.1559
 11
-9.56999
 21
36.3797
  0
LINE
  8
0
 10
-9.56999
 20
36.3797
 11
-9.81169
 21
35.5064
  0
LINE
  8
0
 10
-9.81169
 20
35.5064
 11
-9.89224
 21
34.536
  0
LINE
  8
0
 10
-9.89224
 20
34.536
 11
-9.86237
 21
33.9724
  0
LINE
  8
0
 10
-9.86237
 20
33.9724
 11
-9.77275
 21
33.4377
  0
LINE
  8
0
 10
-9.77275
 20
33.4377
 11
-9.62337
 21
32.9319
  0
LINE
  8
0
 10
-9.62337
 20
32.9319
 11
-9.41425
 21
32.455
  0
LINE
  8
0
 10
-9.41425
 20
32.455
 11
-9.14668
 21
32.007
  0
LINE
  8
0
 10
-9.14668
 20
32.007
 11
-8.82199
 21
31.588
  0
LINE
  8
0
 10
-8.82199
 20
31.588
 11
-8.44019
 21
31.198
  0
LINE
  8
0
 10
-8.44019
 20
31.198
 11
-8.00125
 21
30.837
  0
LINE
  8
0
 10
-8.00125
 20
30.837
 11
-7.78162
 21
30.6978
  0
LINE
  8
0
 10
-7.78162
 20
30.6978
 11
-7.53874
 21
30.5532
  0
LINE
  8
0
 10
-7.53874
 20
30.5532
 11
-7.27263
 21
30.4033
  0
LINE
  8
0
 10
-7.27263
 20
30.4033
 11
-6.98325
 21
30.248
  0
LINE
  8
0
 10
-6.98325
 20
30.248
 11
-6.65837
 21
30.0839
  0
LINE
  8
0
 10
-6.65837
 20
30.0839
 11
-6.28674
 21
29.9067
  0
LINE
  8
0
 10
-6.28674
 20
29.9067
 11
-5.86838
 21
29.7164
  0
LINE
  8
0
 10
-5.86838
 20
29.7164
 11
-5.14362
 21
29.3994
  0
LINE
  8
0
 10
-5.14362
 20
29.3994
 11
-4.90474
 21
29.2897
  0
LINE
  8
0
 10
-4.90474
 20
29.2897
 11
-4.68661
 21
29.1839
  0
LINE
  8
0
 10
-4.68661
 20
29.1839
 11
-4.48924
 21
29.082
  0
LINE
  8
0
 10
-4.48924
 20
29.082
 11
-4.30962
 21
28.9827
  0
LINE
  8
0
 10
-4.30962
 20
28.9827
 11
-4.14575
 21
28.8847
  0
LINE
  8
0
 10
-4.14575
 20
28.8847
 11
-3.99762
 21
28.7882
  0
LINE
  8
0
 10
-3.99762
 20
28.7882
 11
-3.86525
 21
28.693
  0
LINE
  8
0
 10
-3.86525
 20
28.693
 11
-3.69257
 21
28.5545
  0
LINE
  8
0
 10
-3.69257
 20
28.5545
 11
-3.54849
 21
28.412
  0
LINE
  8
0
 10
-3.54849
 20
28.412
 11
-3.43306
 21
28.2655
  0
LINE
  8
0
 10
-3.43306
 20
28.2655
 11
-3.34625
 21
28.115
  0
LINE
  8
0
 10
-3.34625
 20
28.115
 11
-3.28236
 21
27.9566
  0
LINE
  8
0
 10
-3.28236
 20
27.9566
 11
-3.23674
 21
27.7865
  0
LINE
  8
0
 10
-3.23674
 20
27.7865
 11
-3.20937
 21
27.6046
  0
LINE
  8
0
 10
-3.20937
 20
27.6046
 11
-3.20024
 21
27.411
  0
LINE
  8
0
 10
-3.20024
 20
27.411
 11
-3.2243
 21
27.1117
  0
LINE
  8
0
 10
-3.2243
 20
27.1117
 11
-3.29649
 21
26.8438
  0
LINE
  8
0
 10
-3.29649
 20
26.8438
 11
-3.41681
 21
26.6072
  0
LINE
  8
0
 10
-3.41681
 20
26.6072
 11
-3.58525
 21
26.402
  0
LINE
  8
0
 10
-3.58525
 20
26.402
 11
-3.80556
 21
26.2248
  0
LINE
  8
0
 10
-3.80556
 20
26.2248
 11
-4.0815
 21
26.0712
  0
LINE
  8
0
 10
-4.0815
 20
26.0712
 11
-4.41306
 21
25.9413
  0
LINE
  8
0
 10
-4.41306
 20
25.9413
 11
-4.80025
 21
25.835
  0
LINE
  8
0
 10
-4.80025
 20
25.835
 11
-4.80025
 21
24.666
  0
LINE
  8
0
 10
-4.80025
 20
24.666
 11
-3.72612
 21
24.7874
  0
LINE
  8
0
 10
-0.704239
 20
34.2484
 11
-0.588242
 21
34.2855
  0
LINE
  8
0
 10
-0.588242
 20
34.2855
 11
-0.485245
 21
34.3474
  0
LINE
  8
0
 10
-0.485245
 20
34.3474
 11
-0.395248
 21
34.434
  0
LINE
  8
0
 10
-0.395248
 20
34.434
 11
-0.322189
 21
34.5402
  0
LINE
  8
0
 10
-0.322189
 20
34.5402
 11
-0.269989
 21
34.6607
  0
LINE
  8
0
 10
-0.269989
 20
34.6607
 11
-0.238678
 21
34.7957
  0
LINE
  8
0
 10
-0.238678
 20
34.7957
 11
-0.228241
 21
34.945
  0
LINE
  8
0
 10
-0.228241
 20
34.945
 11
-0.228241
 21
38.283
  0
LINE
  8
0
 10
-0.228241
 20
38.283
 11
-0.236053
 21
38.4778
  0
LINE
  8
0
 10
-0.236053
 20
38.4778
 11
-0.259491
 21
38.6452
  0
LINE
  8
0
 10
-0.259491
 20
38.6452
 11
-0.298553
 21
38.7853
  0
LINE
  8
0
 10
-0.298553
 20
38.7853
 11
-0.353241
 21
38.898
  0
LINE
  8
0
 10
-0.353241
 20
38.898
 11
-0.424927
 21
38.9851
  0
LINE
  8
0
 10
-0.424927
 20
38.9851
 11
-0.514999
 21
39.0472
  0
LINE
  8
0
 10
-0.514999
 20
39.0472
 11
-0.623428
 21
39.0845
  0
LINE
  8
0
 10
-0.623428
 20
39.0845
 11
-0.750244
 21
39.097
  0
LINE
  8
0
 10
-0.750244
 20
39.097
 11
-0.810806
 21
39.0937
  0
LINE
  8
0
 10
-0.810806
 20
39.0937
 11
-0.867493
 21
39.0837
  0
LINE
  8
0
 10
-0.867493
 20
39.0837
 11
-0.920303
 21
39.0672
  0
LINE
  8
0
 10
-0.920303
 20
39.0672
 11
-0.969254
 21
39.044
  0
LINE
  8
0
 10
-0.969254
 20
39.044
 11
-1.01556
 21
39.0147
  0
LINE
  8
0
 10
-1.01556
 20
39.0147
 11
-1.0605
 21
38.979
  0
LINE
  8
0
 10
-1.0605
 20
38.979
 11
-1.10406
 21
38.9367
  0
LINE
  8
0
 10
-1.10406
 20
38.9367
 11
-1.14624
 21
38.888
  0
LINE
  8
0
 10
-1.14624
 20
38.888
 11
-1.39874
 21
38.5448
  0
LINE
  8
0
 10
-1.39874
 20
38.5448
 11
-1.42525
 21
38.5172
  0
LINE
  8
0
 10
-1.42525
 20
38.5172
 11
-1.45575
 21
38.4923
  0
LINE
  8
0
 10
-1.45575
 20
38.4923
 11
-1.49025
 21
38.47
  0
LINE
  8
0
 10
-1.49025
 20
38.47
 11
-1.52875
 21
38.4534
  0
LINE
  8
0
 10
-1.52875
 20
38.4534
 11
-1.57124
 21
38.4445
  0
LINE
  8
0
 10
-1.57124
 20
38.4445
 11
-1.61775
 21
38.4434
  0
LINE
  8
0
 10
-1.61775
 20
38.4434
 11
-1.66824
 21
38.45
  0
LINE
  8
0
 10
-1.66824
 20
38.45
 11
-2.00224
 21
38.512
  0
LINE
  8
0
 10
-2.00224
 20
38.512
 11
-2.26157
 21
38.6204
  0
LINE
  8
0
 10
-2.26157
 20
38.6204
 11
-2.4975
 21
38.7157
  0
LINE
  8
0
 10
-2.4975
 20
38.7157
 11
-2.71005
 21
38.7979
  0
LINE
  8
0
 10
-2.71005
 20
38.7979
 11
-2.89925
 21
38.867
  0
LINE
  8
0
 10
-2.89925
 20
38.867
 11
-3.07243
 21
38.9256
  0
LINE
  8
0
 10
-3.07243
 20
38.9256
 11
-3.23799
 21
38.9765
  0
LINE
  8
0
 10
-3.23799
 20
38.9765
 11
-3.39594
 21
39.0196
  0
LINE
  8
0
 10
-3.39594
 20
39.0196
 11
-3.54625
 21
39.055
  0
LINE
  8
0
 10
-3.54625
 20
39.055
 11
-3.63919
 21
39.0746
  0
LINE
  8
0
 10
-3.63919
 20
39.0746
 11
-3.731
 21
39.0915
  0
LINE
  8
0
 10
-3.731
 20
39.0915
 11
-3.82169
 21
39.1056
  0
LINE
  8
0
 10
-3.82169
 20
39.1056
 11
-4.00174
 21
39.1288
  0
LINE
  8
0
 10
-4.00174
 20
39.1288
 11
-4.19475
 21
39.1603
  0
LINE
  8
0
 10
-4.19475
 20
39.1603
 11
-4.29724
 21
39.18
  0
LINE
  8
0
 10
-4.29724
 20
39.18
 11
-4.29724
 21
38.033
  0
LINE
  8
0
 10
-4.29724
 20
38.033
 11
-3.79163
 21
37.8714
  0
LINE
  8
0
 10
-3.79163
 20
37.8714
 11
-3.31874
 21
37.6367
  0
LINE
  8
0
 10
-3.31874
 20
37.6367
 11
-2.87862
 21
37.3289
  0
LINE
  8
0
 10
-2.87862
 20
37.3289
 11
-2.47125
 21
36.948
  0
LINE
  8
0
 10
-2.47125
 20
36.948
 11
-2.11475
 21
36.5114
  0
LINE
  8
0
 10
-2.11475
 20
36.5114
 11
-1.82724
 21
36.0355
  0
LINE
  8
0
 10
-1.82724
 20
36.0355
 11
-1.60875
 21
35.5204
  0
LINE
  8
0
 10
-1.60875
 20
35.5204
 11
-1.45924
 21
34.966
  0
LINE
  8
0
 10
-1.45924
 20
34.966
 11
-1.4138
 21
34.7823
  0
LINE
  8
0
 10
-1.4138
 20
34.7823
 11
-1.36049
 21
34.6272
  0
LINE
  8
0
 10
-1.36049
 20
34.6272
 11
-1.29932
 21
34.5008
  0
LINE
  8
0
 10
-1.29932
 20
34.5008
 11
-1.23024
 21
34.403
  0
LINE
  8
0
 10
-1.23024
 20
34.403
 11
-1.15031
 21
34.3299
  0
LINE
  8
0
 10
-1.15031
 20
34.3299
 11
-1.0575
 21
34.2777
  0
LINE
  8
0
 10
-1.0575
 20
34.2777
 11
-0.951813
 21
34.2464
  0
LINE
  8
0
 10
-0.951813
 20
34.2464
 11
-0.833252
 21
34.236
  0
LINE
  8
0
 10
-0.833252
 20
34.236
 11
-0.704239
 21
34.2484
  0
LINE
  8
0
 10
-47.7385
 20
24.9566
 11
-46.6107
 21
25.3862
  0
LINE
  8
0
 10
-46.6107
 20
25.3862
 11
-45.6225
 21
26.0331
  0
LINE
  8
0
 10
-45.6225
 20
26.0331
 11
-44.7742
 21
26.897
  0
LINE
  8
0
 10
-44.7742
 20
26.897
 11
-44.093
 21
27.9409
  0
LINE
  8
0
 10
-44.093
 20
27.9409
 11
-43.6064
 21
29.1265
  0
LINE
  8
0
 10
-43.6064
 20
29.1265
 11
-43.3145
 21
30.4539
  0
LINE
  8
0
 10
-43.3145
 20
30.4539
 11
-43.2172
 21
31.923
  0
LINE
  8
0
 10
-43.2172
 20
31.923
 11
-43.3165
 21
33.4045
  0
LINE
  8
0
 10
-43.3165
 20
33.4045
 11
-43.6144
 21
34.748
  0
LINE
  8
0
 10
-43.6144
 20
34.748
 11
-44.111
 21
35.9535
  0
LINE
  8
0
 10
-44.111
 20
35.9535
 11
-44.8062
 21
37.021
  0
LINE
  8
0
 10
-44.8062
 20
37.021
 11
-45.6642
 21
37.9042
  0
LINE
  8
0
 10
-45.6642
 20
37.9042
 11
-46.6502
 21
38.556
  0
LINE
  8
0
 10
-46.6502
 20
38.556
 11
-47.7642
 21
38.9762
  0
LINE
  8
0
 10
-47.7642
 20
38.9762
 11
-49.0062
 21
39.165
  0
LINE
  8
0
 10
-49.0062
 20
39.165
 11
-49.0062
 21
38.038
  0
LINE
  8
0
 10
-49.0062
 20
38.038
 11
-48.7601
 21
37.9452
  0
LINE
  8
0
 10
-48.7601
 20
37.9452
 11
-48.5539
 21
37.8327
  0
LINE
  8
0
 10
-48.5539
 20
37.8327
 11
-48.3876
 21
37.7007
  0
LINE
  8
0
 10
-48.3876
 20
37.7007
 11
-48.2612
 21
37.549
  0
LINE
  8
0
 10
-48.2612
 20
37.549
 11
-48.168
 21
37.3717
  0
LINE
  8
0
 10
-48.168
 20
37.3717
 11
-48.1014
 21
37.162
  0
LINE
  8
0
 10
-48.1014
 20
37.162
 11
-48.0615
 21
36.9197
  0
LINE
  8
0
 10
-48.0615
 20
36.9197
 11
-48.0482
 21
36.645
  0
LINE
  8
0
 10
-48.0482
 20
36.645
 11
-48.0482
 21
27.535
  0
LINE
  8
0
 10
-48.0482
 20
27.535
 11
-48.0615
 21
27.1734
  0
LINE
  8
0
 10
-48.0615
 20
27.1734
 11
-48.1014
 21
26.8587
  0
LINE
  8
0
 10
-48.1014
 20
26.8587
 11
-48.168
 21
26.5909
  0
LINE
  8
0
 10
-48.168
 20
26.5909
 11
-48.2612
 21
26.37
  0
LINE
  8
0
 10
-48.2612
 20
26.37
 11
-48.3876
 21
26.1907
  0
LINE
  8
0
 10
-48.3876
 20
26.1907
 11
-48.5539
 21
26.0477
  0
LINE
  8
0
 10
-48.5539
 20
26.0477
 11
-48.7601
 21
25.9412
  0
LINE
  8
0
 10
-48.7601
 20
25.9412
 11
-49.0062
 21
25.871
  0
LINE
  8
0
 10
-49.0062
 20
25.871
 11
-49.0062
 21
24.744
  0
LINE
  8
0
 10
-49.0062
 20
24.744
 11
-47.7385
 21
24.9566
  0
LINE
  8
0
 10
-49.8492
 20
25.85
 11
-50.0929
 21
25.9359
  0
LINE
  8
0
 10
-50.0929
 20
25.9359
 11
-50.2972
 21
26.0477
  0
LINE
  8
0
 10
-50.2972
 20
26.0477
 11
-50.4619
 21
26.1854
  0
LINE
  8
0
 10
-50.4619
 20
26.1854
 11
-50.5872
 21
26.349
  0
LINE
  8
0
 10
-50.5872
 20
26.349
 11
-50.6795
 21
26.5572
  0
LINE
  8
0
 10
-50.6795
 20
26.5572
 11
-50.7454
 21
26.8277
  0
LINE
  8
0
 10
-50.7454
 20
26.8277
 11
-50.785
 21
27.1607
  0
LINE
  8
0
 10
-50.785
 20
27.1607
 11
-50.7982
 21
27.556
  0
LINE
  8
0
 10
-50.7982
 20
27.556
 11
-50.7982
 21
36.624
  0
LINE
  8
0
 10
-50.7982
 20
36.624
 11
-50.785
 21
36.9079
  0
LINE
  8
0
 10
-50.785
 20
36.9079
 11
-50.7454
 21
37.1567
  0
LINE
  8
0
 10
-50.7454
 20
37.1567
 11
-50.6795
 21
37.3704
  0
LINE
  8
0
 10
-50.6795
 20
37.3704
 11
-50.5872
 21
37.549
  0
LINE
  8
0
 10
-50.5872
 20
37.549
 11
-50.4619
 21
37.702
  0
LINE
  8
0
 10
-50.4619
 20
37.702
 11
-50.2972
 21
37.838
  0
LINE
  8
0
 10
-50.2972
 20
37.838
 11
-50.0929
 21
37.957
  0
LINE
  8
0
 10
-50.0929
 20
37.957
 11
-49.8492
 21
38.059
  0
LINE
  8
0
 10
-49.8492
 20
38.059
 11
-49.8492
 21
39.144
  0
LINE
  8
0
 10
-49.8492
 20
39.144
 11
-51.0855
 21
38.9644
  0
LINE
  8
0
 10
-51.0855
 20
38.9644
 11
-52.1974
 21
38.5507
  0
LINE
  8
0
 10
-52.1974
 20
38.5507
 11
-53.185
 21
37.9029
  0
LINE
  8
0
 10
-53.185
 20
37.9029
 11
-54.0482
 21
37.021
  0
LINE
  8
0
 10
-54.0482
 20
37.021
 11
-54.749
 21
35.9535
  0
LINE
  8
0
 10
-54.749
 20
35.9535
 11
-55.2497
 21
34.748
  0
LINE
  8
0
 10
-55.2497
 20
34.748
 11
-55.55
 21
33.4045
  0
LINE
  8
0
 10
-55.55
 20
33.4045
 11
-55.6502
 21
31.923
  0
LINE
  8
0
 10
-55.6502
 20
31.923
 11
-55.552
 21
30.4539
  0
LINE
  8
0
 10
-55.552
 20
30.4539
 11
-55.2577
 21
29.1265
  0
LINE
  8
0
 10
-55.2577
 20
29.1265
 11
-54.767
 21
27.9409
  0
LINE
  8
0
 10
-54.767
 20
27.9409
 11
-54.0802
 21
26.897
  0
LINE
  8
0
 10
-54.0802
 20
26.897
 11
-53.2266
 21
26.0331
  0
LINE
  8
0
 10
-53.2266
 20
26.0331
 11
-52.2369
 21
25.3862
  0
LINE
  8
0
 10
-52.2369
 20
25.3862
 11
-51.1111
 21
24.9566
  0
LINE
  8
0
 10
-51.1111
 20
24.9566
 11
-49.8492
 21
24.744
  0
LINE
  8
0
 10
-49.8492
 20
24.744
 11
-49.8492
 21
25.85
  0
LINE
  8
0
 10
49.6006
 20
29.608
 11
47.1386
 21
38.909
  0
LINE
  8
0
 10
47.1386
 20
38.909
 11
45.0316
 21
38.909
  0
LINE
  8
0
 10
45.0316
 20
38.909
 11
43.8216
 21
33.946
  0
LINE
  8
0
 10
43.8216
 20
33.946
 11
46.1996
 21
25
  0
LINE
  8
0
 10
46.1996
 20
25
 11
48.4116
 21
25
  0
LINE
  8
0
 10
48.4116
 20
25
 11
49.6006
 21
29.608
  0
LINE
  8
0
 10
-29.5886
 20
36.949
 11
-29.5834
 21
37.113
  0
LINE
  8
0
 10
-29.5834
 20
37.113
 11
-29.5678
 21
37.251
  0
LINE
  8
0
 10
-29.5678
 20
37.251
 11
-29.5419
 21
37.363
  0
LINE
  8
0
 10
-29.5419
 20
37.363
 11
-29.5056
 21
37.449
  0
LINE
  8
0
 10
-29.5056
 20
37.449
 11
-29.4479
 21
37.5194
  0
LINE
  8
0
 10
-29.4479
 20
37.5194
 11
-29.3591
 21
37.5845
  0
LINE
  8
0
 10
-29.3591
 20
37.5845
 11
-29.2389
 21
37.6444
  0
LINE
  8
0
 10
-29.2389
 20
37.6444
 11
-29.0876
 21
37.699
  0
LINE
  8
0
 10
-29.0876
 20
37.699
 11
-29.0565
 21
37.7003
  0
LINE
  8
0
 10
-29.0565
 20
37.7003
 11
-29.0253
 21
37.7042
  0
LINE
  8
0
 10
-29.0253
 20
37.7042
 11
-28.994
 21
37.7108
  0
LINE
  8
0
 10
-28.994
 20
37.7108
 11
-28.8568
 21
37.7515
  0
LINE
  8
0
 10
-28.8568
 20
37.7515
 11
-28.8166
 21
37.762
  0
LINE
  8
0
 10
-28.8166
 20
37.762
 11
-28.7081
 21
37.7976
  0
LINE
  8
0
 10
-28.7081
 20
37.7976
 11
-28.6128
 21
37.8422
  0
LINE
  8
0
 10
-28.6128
 20
37.8422
 11
-28.5306
 21
37.8961
  0
LINE
  8
0
 10
-28.5306
 20
37.8961
 11
-28.4616
 21
37.959
  0
LINE
  8
0
 10
-28.4616
 20
37.959
 11
-28.4069
 21
38.0316
  0
LINE
  8
0
 10
-28.4069
 20
38.0316
 11
-28.3678
 21
38.1132
  0
LINE
  8
0
 10
-28.3678
 20
38.1132
 11
-28.3444
 21
38.2041
  0
LINE
  8
0
 10
-28.3444
 20
38.2041
 11
-28.3366
 21
38.304
  0
LINE
  8
0
 10
-28.3366
 20
38.304
 11
-28.3497
 21
38.4402
  0
LINE
  8
0
 10
-28.3497
 20
38.4402
 11
-28.3891
 21
38.5567
  0
LINE
  8
0
 10
-28.3891
 20
38.5567
 11
-28.4547
 21
38.6537
  0
LINE
  8
0
 10
-28.4547
 20
38.6537
 11
-28.5466
 21
38.731
  0
LINE
  8
0
 10
-28.5466
 20
38.731
 11
-28.6681
 21
38.7931
  0
LINE
  8
0
 10
-28.6681
 20
38.7931
 11
-28.8238
 21
38.8435
  0
LINE
  8
0
 10
-28.8238
 20
38.8435
 11
-29.0136
 21
38.8821
  0
LINE
  8
0
 10
-29.0136
 20
38.8821
 11
-29.2376
 21
38.909
  0
LINE
  8
0
 10
-29.2376
 20
38.909
 11
-34.1586
 21
38.909
  0
LINE
  8
0
 10
-34.1586
 20
38.909
 11
-34.4226
 21
38.888
  0
LINE
  8
0
 10
-34.4226
 20
38.888
 11
-34.5952
 21
38.8795
  0
LINE
  8
0
 10
-34.5952
 20
38.8795
 11
-34.7461
 21
38.854
  0
LINE
  8
0
 10
-34.7461
 20
38.854
 11
-34.8752
 21
38.8115
  0
LINE
  8
0
 10
-34.8752
 20
38.8115
 11
-34.9826
 21
38.752
  0
LINE
  8
0
 10
-34.9826
 20
38.752
 11
-35.067
 21
38.6747
  0
LINE
  8
0
 10
-35.067
 20
38.6747
 11
-35.1273
 21
38.5777
  0
LINE
  8
0
 10
-35.1273
 20
38.5777
 11
-35.1635
 21
38.4612
  0
LINE
  8
0
 10
-35.1635
 20
38.4612
 11
-35.1756
 21
38.325
  0
LINE
  8
0
 10
-35.1756
 20
38.325
 11
-35.1693
 21
38.2342
  0
LINE
  8
0
 10
-35.1693
 20
38.2342
 11
-35.1503
 21
38.15
  0
LINE
  8
0
 10
-35.1503
 20
38.15
 11
-35.1188
 21
38.0722
  0
LINE
  8
0
 10
-35.1188
 20
38.0722
 11
-35.0746
 21
38.001
  0
LINE
  8
0
 10
-35.0746
 20
38.001
 11
-35.0172
 21
37.938
  0
LINE
  8
0
 10
-35.0172
 20
37.938
 11
-34.9471
 21
37.884
  0
LINE
  8
0
 10
-34.9471
 20
37.884
 11
-34.8642
 21
37.839
  0
LINE
  8
0
 10
-34.8642
 20
37.839
 11
-34.7686
 21
37.803
  0
LINE
  8
0
 10
-34.7686
 20
37.803
 11
-34.6901
 21
37.7795
  0
LINE
  8
0
 10
-34.6901
 20
37.7795
 11
-34.4836
 21
37.699
  0
LINE
  8
0
 10
-34.4836
 20
37.699
 11
-34.3828
 21
37.6452
  0
LINE
  8
0
 10
-34.3828
 20
37.6452
 11
-34.3036
 21
37.589
  0
LINE
  8
0
 10
-34.3036
 20
37.589
 11
-34.2458
 21
37.5302
  0
LINE
  8
0
 10
-34.2458
 20
37.5302
 11
-34.2096
 21
37.469
  0
LINE
  8
0
 10
-34.2096
 20
37.469
 11
-34.1873
 21
37.3961
  0
LINE
  8
0
 10
-34.1873
 20
37.3961
 11
-34.1713
 21
37.3022
  0
LINE
  8
0
 10
-34.1713
 20
37.3022
 11
-34.1618
 21
37.1876
  0
LINE
  8
0
 10
-34.1618
 20
37.1876
 11
-34.1586
 21
37.052
  0
LINE
  8
0
 10
-34.1586
 20
37.052
 11
-34.1586
 21
26.835
  0
LINE
  8
0
 10
-34.1586
 20
26.835
 11
-34.1618
 21
26.6907
  0
LINE
  8
0
 10
-34.1618
 20
26.6907
 11
-34.1713
 21
26.5697
  0
LINE
  8
0
 10
-34.1713
 20
26.5697
 11
-34.1873
 21
26.4722
  0
LINE
  8
0
 10
-34.1873
 20
26.4722
 11
-34.2096
 21
26.398
  0
LINE
  8
0
 10
-34.2096
 20
26.398
 11
-34.2458
 21
26.3367
  0
LINE
  8
0
 10
-34.2458
 20
26.3367
 11
-34.3036
 21
26.278
  0
LINE
  8
0
 10
-34.3036
 20
26.278
 11
-34.3828
 21
26.2217
  0
LINE
  8
0
 10
-34.3828
 20
26.2217
 11
-34.4836
 21
26.168
  0
LINE
  8
0
 10
-34.4836
 20
26.168
 11
-34.6901
 21
26.0875
  0
LINE
  8
0
 10
-34.6901
 20
26.0875
 11
-34.7686
 21
26.064
  0
LINE
  8
0
 10
-34.7686
 20
26.064
 11
-34.8642
 21
26.0279
  0
LINE
  8
0
 10
-34.8642
 20
26.0279
 11
-34.9471
 21
25.9827
  0
LINE
  8
0
 10
-34.9471
 20
25.9827
 11
-35.0172
 21
25.9284
  0
LINE
  8
0
 10
-35.0172
 20
25.9284
 11
-35.0746
 21
25.865
  0
LINE
  8
0
 10
-35.0746
 20
25.865
 11
-35.1188
 21
25.7942
  0
LINE
  8
0
 10
-35.1188
 20
25.7942
 11
-35.1503
 21
25.7167
  0
LINE
  8
0
 10
-35.1503
 20
25.7167
 11
-35.1693
 21
25.6327
  0
LINE
  8
0
 10
-35.1693
 20
25.6327
 11
-35.1756
 21
25.542
  0
LINE
  8
0
 10
-35.1756
 20
25.542
 11
-35.1641
 21
25.4149
  0
LINE
  8
0
 10
-35.1641
 20
25.4149
 11
-35.1298
 21
25.3047
  0
LINE
  8
0
 10
-35.1298
 20
25.3047
 11
-35.0726
 21
25.2114
  0
LINE
  8
0
 10
-35.0726
 20
25.2114
 11
-34.9926
 21
25.135
  0
LINE
  8
0
 10
-34.9926
 20
25.135
 11
-34.8883
 21
25.0759
  0
LINE
  8
0
 10
-34.8883
 20
25.0759
 11
-34.7586
 21
25.0337
  0
LINE
  8
0
 10
-34.7586
 20
25.0337
 11
-34.6033
 21
25.0084
  0
LINE
  8
0
 10
-34.6033
 20
25.0084
 11
-34.4226
 21
25
  0
LINE
  8
0
 10
-34.4226
 20
25
 11
-29.5886
 21
25
  0
LINE
  8
0
 10
-29.5886
 20
25
 11
-29.5886
 21
36.949
  0
LINE
  8
0
 10
44.0716
 20
29.942
 11
42.1736
 21
36.97
  0
LINE
  8
0
 10
42.1736
 20
36.97
 11
42.1526
 21
37.178
  0
LINE
  8
0
 10
42.1526
 20
37.178
 11
42.1539
 21
37.2471
  0
LINE
  8
0
 10
42.1539
 20
37.2471
 11
42.1579
 21
37.3082
  0
LINE
  8
0
 10
42.1579
 20
37.3082
 11
42.1644
 21
37.3616
  0
LINE
  8
0
 10
42.1644
 20
37.3616
 11
42.1736
 21
37.407
  0
LINE
  8
0
 10
42.1736
 20
37.407
 11
42.188
 21
37.4489
  0
LINE
  8
0
 10
42.188
 20
37.4489
 11
42.2101
 21
37.4907
  0
LINE
  8
0
 10
42.2101
 20
37.4907
 11
42.24
 21
37.5324
  0
LINE
  8
0
 10
42.24
 20
37.5324
 11
42.2776
 21
37.574
  0
LINE
  8
0
 10
42.2776
 20
37.574
 11
42.3018
 21
37.5962
  0
LINE
  8
0
 10
42.3018
 20
37.5962
 11
42.3699
 21
37.6482
  0
LINE
  8
0
 10
42.3699
 20
37.6482
 11
42.7109
 21
37.8789
  0
LINE
  8
0
 10
42.7109
 20
37.8789
 11
42.7786
 21
37.9367
  0
LINE
  8
0
 10
42.7786
 20
37.9367
 11
42.8359
 21
37.9984
  0
LINE
  8
0
 10
42.8359
 20
37.9984
 11
42.8826
 21
38.064
  0
LINE
  8
0
 10
42.8826
 20
38.064
 11
42.9194
 21
38.1326
  0
LINE
  8
0
 10
42.9194
 20
38.1326
 11
42.9456
 21
38.2025
  0
LINE
  8
0
 10
42.9456
 20
38.2025
 11
42.9613
 21
38.2736
  0
LINE
  8
0
 10
42.9613
 20
38.2736
 11
42.9666
 21
38.346
  0
LINE
  8
0
 10
42.9666
 20
38.346
 11
42.9548
 21
38.4816
  0
LINE
  8
0
 10
42.9548
 20
38.4816
 11
42.9196
 21
38.5962
  0
LINE
  8
0
 10
42.9196
 20
38.5962
 11
42.8609
 21
38.69
  0
LINE
  8
0
 10
42.8609
 20
38.69
 11
42.7786
 21
38.763
  0
LINE
  8
0
 10
42.7786
 20
38.763
 11
42.669
 21
38.819
  0
LINE
  8
0
 10
42.669
 20
38.819
 11
42.5281
 21
38.862
  0
LINE
  8
0
 10
42.5281
 20
38.862
 11
42.356
 21
38.892
  0
LINE
  8
0
 10
42.356
 20
38.892
 11
42.1526
 21
38.909
  0
LINE
  8
0
 10
42.1526
 20
38.909
 11
37.3746
 21
38.888
  0
LINE
  8
0
 10
37.3746
 20
38.888
 11
37.1581
 21
38.8782
  0
LINE
  8
0
 10
37.1581
 20
38.8782
 11
36.9676
 21
38.8487
  0
LINE
  8
0
 10
36.9676
 20
38.8487
 11
36.8031
 21
38.7997
  0
LINE
  8
0
 10
36.8031
 20
38.7997
 11
36.6646
 21
38.731
  0
LINE
  8
0
 10
36.6646
 20
38.731
 11
36.5552
 21
38.6445
  0
LINE
  8
0
 10
36.5552
 20
38.6445
 11
36.4771
 21
38.541
  0
LINE
  8
0
 10
36.4771
 20
38.541
 11
36.4302
 21
38.4205
  0
LINE
  8
0
 10
36.4302
 20
38.4205
 11
36.4146
 21
38.283
  0
LINE
  8
0
 10
36.4146
 20
38.283
 11
36.4211
 21
38.1837
  0
LINE
  8
0
 10
36.4211
 20
38.1837
 11
36.4406
 21
38.095
  0
LINE
  8
0
 10
36.4406
 20
38.095
 11
36.4731
 21
38.0167
  0
LINE
  8
0
 10
36.4731
 20
38.0167
 11
36.5186
 21
37.949
  0
LINE
  8
0
 10
36.5186
 20
37.949
 11
36.5776
 21
37.8878
  0
LINE
  8
0
 10
36.5776
 20
37.8878
 11
36.6496
 21
37.8292
  0
LINE
  8
0
 10
36.6496
 20
37.8292
 11
36.7346
 21
37.7733
  0
LINE
  8
0
 10
36.7346
 20
37.7733
 11
36.8326
 21
37.72
  0
LINE
  8
0
 10
36.8326
 20
37.72
 11
36.9203
 21
37.6859
  0
LINE
  8
0
 10
36.9203
 20
37.6859
 11
36.9964
 21
37.6467
  0
LINE
  8
0
 10
36.9964
 20
37.6467
 11
37.0608
 21
37.6024
  0
LINE
  8
0
 10
37.0608
 20
37.6024
 11
37.1136
 21
37.553
  0
LINE
  8
0
 10
37.1136
 20
37.553
 11
37.16
 21
37.4919
  0
LINE
  8
0
 10
37.16
 20
37.4919
 11
37.2051
 21
37.4125
  0
LINE
  8
0
 10
37.2051
 20
37.4125
 11
37.249
 21
37.3149
  0
LINE
  8
0
 10
37.249
 20
37.3149
 11
37.2916
 21
37.199
  0
LINE
  8
0
 10
37.2916
 20
37.199
 11
37.3222
 21
37.1242
  0
LINE
  8
0
 10
37.3222
 20
37.1242
 11
37.3746
 21
36.969
  0
LINE
  8
0
 10
37.3746
 20
36.969
 11
40.6296
 21
25
  0
LINE
  8
0
 10
40.6296
 20
25
 11
42.8406
 21
25
  0
LINE
  8
0
 10
42.8406
 20
25
 11
44.0716
 21
29.942
  0
LINE
  8
0
 10
51.2286
 20
36.108
 11
51.3379
 21
36.453
  0
LINE
  8
0
 10
51.3379
 20
36.453
 11
51.4576
 21
36.7562
  0
LINE
  8
0
 10
51.4576
 20
36.7562
 11
51.5879
 21
37.0175
  0
LINE
  8
0
 10
51.5879
 20
37.0175
 11
51.7286
 21
37.237
  0
LINE
  8
0
 10
51.7286
 20
37.237
 11
51.8933
 21
37.4281
  0
LINE
  8
0
 10
51.8933
 20
37.4281
 11
52.0944
 21
37.6035
  0
LINE
  8
0
 10
52.0944
 20
37.6035
 11
52.3318
 21
37.7631
  0
LINE
  8
0
 10
52.3318
 20
37.7631
 11
52.6056
 21
37.907
  0
LINE
  8
0
 10
52.6056
 20
37.907
 11
52.7104
 21
37.959
  0
LINE
  8
0
 10
52.7104
 20
37.959
 11
52.7956
 21
38.011
  0
LINE
  8
0
 10
52.7956
 20
38.011
 11
52.8614
 21
38.063
  0
LINE
  8
0
 10
52.8614
 20
38.063
 11
52.9076
 21
38.115
  0
LINE
  8
0
 10
52.9076
 20
38.115
 11
52.9395
 21
38.1701
  0
LINE
  8
0
 10
52.9395
 20
38.1701
 11
52.9624
 21
38.2302
  0
LINE
  8
0
 10
52.9624
 20
38.2302
 11
52.976
 21
38.2955
  0
LINE
  8
0
 10
52.976
 20
38.2955
 11
52.9806
 21
38.366
  0
LINE
  8
0
 10
52.9806
 20
38.366
 11
52.9702
 21
38.5009
  0
LINE
  8
0
 10
52.9702
 20
38.5009
 11
52.9389
 21
38.6137
  0
LINE
  8
0
 10
52.9389
 20
38.6137
 11
52.8867
 21
38.7044
  0
LINE
  8
0
 10
52.8867
 20
38.7044
 11
52.8136
 21
38.773
  0
LINE
  8
0
 10
52.8136
 20
38.773
 11
52.7145
 21
38.8246
  0
LINE
  8
0
 10
52.7145
 20
38.8246
 11
52.5841
 21
38.8645
  0
LINE
  8
0
 10
52.5841
 20
38.8645
 11
52.4225
 21
38.8926
  0
LINE
  8
0
 10
52.4225
 20
38.8926
 11
52.2296
 21
38.909
  0
LINE
  8
0
 10
52.2296
 20
38.909
 11
49.8096
 21
38.888
  0
LINE
  8
0
 10
49.8096
 20
38.888
 11
49.6432
 21
38.8808
  0
LINE
  8
0
 10
49.6432
 20
38.8808
 11
49.4991
 21
38.8592
  0
LINE
  8
0
 10
49.4991
 20
38.8592
 11
49.3772
 21
38.8233
  0
LINE
  8
0
 10
49.3772
 20
38.8233
 11
49.2776
 21
38.773
  0
LINE
  8
0
 10
49.2776
 20
38.773
 11
49.2002
 21
38.7057
  0
LINE
  8
0
 10
49.2002
 20
38.7057
 11
49.1449
 21
38.619
  0
LINE
  8
0
 10
49.1449
 20
38.619
 11
49.1117
 21
38.5127
  0
LINE
  8
0
 10
49.1117
 20
38.5127
 11
49.1006
 21
38.387
  0
LINE
  8
0
 10
49.1006
 20
38.387
 11
49.1032
 21
38.3172
  0
LINE
  8
0
 10
49.1032
 20
38.3172
 11
49.1109
 21
38.254
  0
LINE
  8
0
 10
49.1109
 20
38.254
 11
49.1237
 21
38.1972
  0
LINE
  8
0
 10
49.1237
 20
38.1972
 11
49.1416
 21
38.147
  0
LINE
  8
0
 10
49.1416
 20
38.147
 11
49.1678
 21
38.1007
  0
LINE
  8
0
 10
49.1678
 20
38.1007
 11
49.2044
 21
38.0557
  0
LINE
  8
0
 10
49.2044
 20
38.0557
 11
49.2513
 21
38.0122
  0
LINE
  8
0
 10
49.2513
 20
38.0122
 11
49.3086
 21
37.97
  0
LINE
  8
0
 10
49.3086
 20
37.97
 11
49.3556
 21
37.928
  0
LINE
  8
0
 10
49.3556
 20
37.928
 11
49.4126
 21
37.886
  0
LINE
  8
0
 10
49.4126
 20
37.886
 11
49.4809
 21
37.8447
  0
LINE
  8
0
 10
49.4809
 20
37.8447
 11
49.7341
 21
37.707
  0
LINE
  8
0
 10
49.7341
 20
37.707
 11
49.8826
 21
37.607
  0
LINE
  8
0
 10
49.8826
 20
37.607
 11
50.0051
 21
37.503
  0
LINE
  8
0
 10
50.0051
 20
37.503
 11
50.1016
 21
37.395
  0
LINE
  8
0
 10
50.1016
 20
37.395
 11
50.1747
 21
37.2818
  0
LINE
  8
0
 10
50.1747
 20
37.2818
 11
50.2269
 21
37.1622
  0
LINE
  8
0
 10
50.2269
 20
37.1622
 11
50.2582
 21
37.0363
  0
LINE
  8
0
 10
50.2582
 20
37.0363
 11
50.2686
 21
36.904
  0
LINE
  8
0
 10
50.2686
 20
36.904
 11
50.1846
 21
36.339
  0
LINE
  8
0
 10
50.1846
 20
36.339
 11
49.4336
 21
33.327
  0
LINE
  8
0
 10
49.4336
 20
33.327
 11
49.9766
 21
31.256
  0
LINE
  8
0
 10
49.9766
 20
31.256
 11
51.2286
 21
36.108
  0
LINE
  8
0
 10
61.0445
 20
25.0084
 11
61.2021
 21
25.0337
  0
LINE
  8
0
 10
61.2021
 20
25.0337
 11
61.337
 21
25.0759
  0
LINE
  8
0
 10
61.337
 20
25.0759
 11
61.4493
 21
25.135
  0
LINE
  8
0
 10
61.4493
 20
25.135
 11
61.5382
 21
25.2114
  0
LINE
  8
0
 10
61.5382
 20
25.2114
 11
61.6016
 21
25.3047
  0
LINE
  8
0
 10
61.6016
 20
25.3047
 11
61.6397
 21
25.4149
  0
LINE
  8
0
 10
61.6397
 20
25.4149
 11
61.6523
 21
25.542
  0
LINE
  8
0
 10
61.6523
 20
25.542
 11
61.6457
 21
25.6327
  0
LINE
  8
0
 10
61.6457
 20
25.6327
 11
61.6256
 21
25.7167
  0
LINE
  8
0
 10
61.6256
 20
25.7167
 11
61.5922
 21
25.7942
  0
LINE
  8
0
 10
61.5922
 20
25.7942
 11
61.5453
 21
25.865
  0
LINE
  8
0
 10
61.5453
 20
25.865
 11
61.4857
 21
25.9284
  0
LINE
  8
0
 10
61.4857
 20
25.9284
 11
61.4126
 21
25.9827
  0
LINE
  8
0
 10
61.4126
 20
25.9827
 11
61.3262
 21
26.0279
  0
LINE
  8
0
 10
61.3262
 20
26.0279
 11
61.2263
 21
26.064
  0
LINE
  8
0
 10
61.2263
 20
26.064
 11
61.1438
 21
26.0875
  0
LINE
  8
0
 10
61.1438
 20
26.0875
 11
60.9283
 21
26.168
  0
LINE
  8
0
 10
60.9283
 20
26.168
 11
60.8226
 21
26.2217
  0
LINE
  8
0
 10
60.8226
 20
26.2217
 11
60.7393
 21
26.278
  0
LINE
  8
0
 10
60.7393
 20
26.278
 11
60.6786
 21
26.3367
  0
LINE
  8
0
 10
60.6786
 20
26.3367
 11
60.6404
 21
26.398
  0
LINE
  8
0
 10
60.6404
 20
26.398
 11
60.6172
 21
26.4735
  0
LINE
  8
0
 10
60.6172
 20
26.4735
 11
60.6006
 21
26.575
  0
LINE
  8
0
 10
60.6006
 20
26.575
 11
60.5907
 21
26.7025
  0
LINE
  8
0
 10
60.5907
 20
26.7025
 11
60.5873
 21
26.856
  0
LINE
  8
0
 10
60.5873
 20
26.856
 11
60.5873
 21
37.032
  0
LINE
  8
0
 10
60.5873
 20
37.032
 11
60.5907
 21
37.1763
  0
LINE
  8
0
 10
60.5907
 20
37.1763
 11
60.6006
 21
37.2972
  0
LINE
  8
0
 10
60.6006
 20
37.2972
 11
60.6172
 21
37.3948
  0
LINE
  8
0
 10
60.6172
 20
37.3948
 11
60.6404
 21
37.469
  0
LINE
  8
0
 10
60.6404
 20
37.469
 11
60.6786
 21
37.5302
  0
LINE
  8
0
 10
60.6786
 20
37.5302
 11
60.7393
 21
37.589
  0
LINE
  8
0
 10
60.7393
 20
37.589
 11
60.8226
 21
37.6452
  0
LINE
  8
0
 10
60.8226
 20
37.6452
 11
60.9283
 21
37.699
  0
LINE
  8
0
 10
60.9283
 20
37.699
 11
61.03
 21
37.7361
  0
LINE
  8
0
 10
61.03
 20
37.7361
 11
61.1045
 21
37.7659
  0
LINE
  8
0
 10
61.1045
 20
37.7659
 11
61.1845
 21
37.7919
  0
LINE
  8
0
 10
61.1845
 20
37.7919
 11
61.2263
 21
37.803
  0
LINE
  8
0
 10
61.2263
 20
37.803
 11
61.3262
 21
37.839
  0
LINE
  8
0
 10
61.3262
 20
37.839
 11
61.4126
 21
37.884
  0
LINE
  8
0
 10
61.4126
 20
37.884
 11
61.4857
 21
37.938
  0
LINE
  8
0
 10
61.4857
 20
37.938
 11
61.5453
 21
38.001
  0
LINE
  8
0
 10
61.5453
 20
38.001
 11
61.5922
 21
38.0722
  0
LINE
  8
0
 10
61.5922
 20
38.0722
 11
61.6256
 21
38.15
  0
LINE
  8
0
 10
61.6256
 20
38.15
 11
61.6457
 21
38.2342
  0
LINE
  8
0
 10
61.6457
 20
38.2342
 11
61.6523
 21
38.325
  0
LINE
  8
0
 10
61.6523
 20
38.325
 11
61.6404
 21
38.4606
  0
LINE
  8
0
 10
61.6404
 20
38.4606
 11
61.6044
 21
38.5752
  0
LINE
  8
0
 10
61.6044
 20
38.5752
 11
61.5443
 21
38.6691
  0
LINE
  8
0
 10
61.5443
 20
38.6691
 11
61.4603
 21
38.742
  0
LINE
  8
0
 10
61.4603
 20
38.742
 11
61.3515
 21
38.7993
  0
LINE
  8
0
 10
61.3515
 20
38.7993
 11
61.2159
 21
38.8462
  0
LINE
  8
0
 10
61.2159
 20
38.8462
 11
61.0535
 21
38.8828
  0
LINE
  8
0
 10
61.0535
 20
38.8828
 11
60.8643
 21
38.909
  0
LINE
  8
0
 10
60.8643
 20
38.909
 11
56.0654
 21
38.909
  0
LINE
  8
0
 10
56.0654
 20
38.909
 11
55.7943
 21
38.888
  0
LINE
  8
0
 10
55.7943
 20
38.888
 11
55.6175
 21
38.8795
  0
LINE
  8
0
 10
55.6175
 20
38.8795
 11
55.4628
 21
38.854
  0
LINE
  8
0
 10
55.4628
 20
38.854
 11
55.3305
 21
38.8115
  0
LINE
  8
0
 10
55.3305
 20
38.8115
 11
55.2204
 21
38.752
  0
LINE
  8
0
 10
55.2204
 20
38.752
 11
55.1337
 21
38.6747
  0
LINE
  8
0
 10
55.1337
 20
38.6747
 11
55.0719
 21
38.5777
  0
LINE
  8
0
 10
55.0719
 20
38.5777
 11
55.0347
 21
38.4612
  0
LINE
  8
0
 10
55.0347
 20
38.4612
 11
55.0224
 21
38.325
  0
LINE
  8
0
 10
55.0224
 20
38.325
 11
55.0289
 21
38.2342
  0
LINE
  8
0
 10
55.0289
 20
38.2342
 11
55.0484
 21
38.15
  0
LINE
  8
0
 10
55.0484
 20
38.15
 11
55.0808
 21
38.0722
  0
LINE
  8
0
 10
55.0808
 20
38.0722
 11
55.1263
 21
38.001
  0
LINE
  8
0
 10
55.1263
 20
38.001
 11
55.1853
 21
37.938
  0
LINE
  8
0
 10
55.1853
 20
37.938
 11
55.2571
 21
37.884
  0
LINE
  8
0
 10
55.2571
 20
37.884
 11
55.3418
 21
37.839
  0
LINE
  8
0
 10
55.3418
 20
37.839
 11
55.4393
 21
37.803
  0
LINE
  8
0
 10
55.4393
 20
37.803
 11
55.5206
 21
37.7795
  0
LINE
  8
0
 10
55.5206
 20
37.7795
 11
55.7314
 21
37.699
  0
LINE
  8
0
 10
55.7314
 20
37.699
 11
55.8352
 21
37.6452
  0
LINE
  8
0
 10
55.8352
 20
37.6452
 11
55.9169
 21
37.589
  0
LINE
  8
0
 10
55.9169
 20
37.589
 11
55.9762
 21
37.5302
  0
LINE
  8
0
 10
55.9762
 20
37.5302
 11
56.0134
 21
37.469
  0
LINE
  8
0
 10
56.0134
 20
37.469
 11
56.0361
 21
37.3961
  0
LINE
  8
0
 10
56.0361
 20
37.3961
 11
56.0524
 21
37.3022
  0
LINE
  8
0
 10
56.0524
 20
37.3022
 11
56.0621
 21
37.1876
  0
LINE
  8
0
 10
56.0621
 20
37.1876
 11
56.0654
 21
37.052
  0
LINE
  8
0
 10
56.0654
 20
37.052
 11
56.0654
 21
26.835
  0
LINE
  8
0
 10
56.0654
 20
26.835
 11
56.0621
 21
26.6907
  0
LINE
  8
0
 10
56.0621
 20
26.6907
 11
56.0524
 21
26.5697
  0
LINE
  8
0
 10
56.0524
 20
26.5697
 11
56.0361
 21
26.4722
  0
LINE
  8
0
 10
56.0361
 20
26.4722
 11
56.0134
 21
26.398
  0
LINE
  8
0
 10
56.0134
 20
26.398
 11
55.9762
 21
26.3367
  0
LINE
  8
0
 10
55.9762
 20
26.3367
 11
55.9169
 21
26.278
  0
LINE
  8
0
 10
55.9169
 20
26.278
 11
55.8352
 21
26.2217
  0
LINE
  8
0
 10
55.8352
 20
26.2217
 11
55.7314
 21
26.168
  0
LINE
  8
0
 10
55.7314
 20
26.168
 11
55.6322
 21
26.1309
  0
LINE
  8
0
 10
55.6322
 20
26.1309
 11
55.5592
 21
26.1011
  0
LINE
  8
0
 10
55.5592
 20
26.1011
 11
55.4807
 21
26.0751
  0
LINE
  8
0
 10
55.4807
 20
26.0751
 11
55.4393
 21
26.064
  0
LINE
  8
0
 10
55.4393
 20
26.064
 11
55.3418
 21
26.0279
  0
LINE
  8
0
 10
55.3418
 20
26.0279
 11
55.2571
 21
25.9827
  0
LINE
  8
0
 10
55.2571
 20
25.9827
 11
55.1853
 21
25.9284
  0
LINE
  8
0
 10
55.1853
 20
25.9284
 11
55.1263
 21
25.865
  0
LINE
  8
0
 10
55.1263
 20
25.865
 11
55.0808
 21
25.7942
  0
LINE
  8
0
 10
55.0808
 20
25.7942
 11
55.0484
 21
25.7167
  0
LINE
  8
0
 10
55.0484
 20
25.7167
 11
55.0289
 21
25.6327
  0
LINE
  8
0
 10
55.0289
 20
25.6327
 11
55.0224
 21
25.542
  0
LINE
  8
0
 10
55.0224
 20
25.542
 11
55.034
 21
25.4149
  0
LINE
  8
0
 10
55.034
 20
25.4149
 11
55.0691
 21
25.3047
  0
LINE
  8
0
 10
55.0691
 20
25.3047
 11
55.1275
 21
25.2114
  0
LINE
  8
0
 10
55.1275
 20
25.2114
 11
55.2094
 21
25.135
  0
LINE
  8
0
 10
55.2094
 20
25.135
 11
55.3164
 21
25.0759
  0
LINE
  8
0
 10
55.3164
 20
25.0759
 11
55.4496
 21
25.0337
  0
LINE
  8
0
 10
55.4496
 20
25.0337
 11
55.6089
 21
25.0084
  0
LINE
  8
0
 10
55.6089
 20
25.0084
 11
55.7943
 21
25
  0
LINE
  8
0
 10
55.7943
 20
25
 11
60.8643
 21
25
  0
LINE
  8
0
 10
60.8643
 20
25
 11
61.0445
 21
25.0084
  0
LINE
  8
0
 10
83.1223
 20
25.0078
 11
83.2667
 21
25.0312
  0
LINE
  8
0
 10
83.2667
 20
25.0312
 11
83.3873
 21
25.0703
  0
LINE
  8
0
 10
83.3873
 20
25.0703
 11
83.4842
 21
25.125
  0
LINE
  8
0
 10
83.4842
 20
25.125
 11
83.5586
 21
25.1971
  0
LINE
  8
0
 10
83.5586
 20
25.1971
 11
83.6117
 21
25.2872
  0
LINE
  8
0
 10
83.6117
 20
25.2872
 11
83.6436
 21
25.3956
  0
LINE
  8
0
 10
83.6436
 20
25.3956
 11
83.6542
 21
25.522
  0
LINE
  8
0
 10
83.6542
 20
25.522
 11
83.6486
 21
25.6181
  0
LINE
  8
0
 10
83.6486
 20
25.6181
 11
83.6317
 21
25.7052
  0
LINE
  8
0
 10
83.6317
 20
25.7052
 11
83.6036
 21
25.7836
  0
LINE
  8
0
 10
83.6036
 20
25.7836
 11
83.5642
 21
25.853
  0
LINE
  8
0
 10
83.5642
 20
25.853
 11
83.5123
 21
25.9153
  0
LINE
  8
0
 10
83.5123
 20
25.9153
 11
83.4467
 21
25.9712
  0
LINE
  8
0
 10
83.4467
 20
25.9712
 11
83.3673
 21
26.0208
  0
LINE
  8
0
 10
83.3673
 20
26.0208
 11
83.2742
 21
26.064
  0
LINE
  8
0
 10
83.2742
 20
26.064
 11
82.9742
 21
26.148
  0
LINE
  8
0
 10
82.9742
 20
26.148
 11
82.9086
 21
26.177
  0
LINE
  8
0
 10
82.9086
 20
26.177
 11
82.8517
 21
26.223
  0
LINE
  8
0
 10
82.8517
 20
26.223
 11
82.8036
 21
26.286
  0
LINE
  8
0
 10
82.8036
 20
26.286
 11
82.7642
 21
26.366
  0
LINE
  8
0
 10
82.7642
 20
26.366
 11
82.7336
 21
26.4622
  0
LINE
  8
0
 10
82.7336
 20
26.4622
 11
82.7117
 21
26.5727
  0
LINE
  8
0
 10
82.7117
 20
26.5727
 11
82.6986
 21
26.6977
  0
LINE
  8
0
 10
82.6986
 20
26.6977
 11
82.6942
 21
26.837
  0
LINE
  8
0
 10
82.6942
 20
26.837
 11
82.6942
 21
37.03
  0
LINE
  8
0
 10
82.6942
 20
37.03
 11
82.6986
 21
37.1686
  0
LINE
  8
0
 10
82.6986
 20
37.1686
 11
82.7117
 21
37.2915
  0
LINE
  8
0
 10
82.7117
 20
37.2915
 11
82.7336
 21
37.3986
  0
LINE
  8
0
 10
82.7336
 20
37.3986
 11
82.7642
 21
37.49
  0
LINE
  8
0
 10
82.7642
 20
37.49
 11
82.8036
 21
37.5669
  0
LINE
  8
0
 10
82.8036
 20
37.5669
 11
82.8517
 21
37.6307
  0
LINE
  8
0
 10
82.8517
 20
37.6307
 11
82.9086
 21
37.6814
  0
LINE
  8
0
 10
82.9086
 20
37.6814
 11
82.9742
 21
37.719
  0
LINE
  8
0
 10
82.9742
 20
37.719
 11
83.2742
 21
37.803
  0
LINE
  8
0
 10
83.2742
 20
37.803
 11
83.3673
 21
37.839
  0
LINE
  8
0
 10
83.3673
 20
37.839
 11
83.4467
 21
37.884
  0
LINE
  8
0
 10
83.4467
 20
37.884
 11
83.5123
 21
37.938
  0
LINE
  8
0
 10
83.5123
 20
37.938
 11
83.5642
 21
38.001
  0
LINE
  8
0
 10
83.5642
 20
38.001
 11
83.6036
 21
38.0735
  0
LINE
  8
0
 10
83.6036
 20
38.0735
 11
83.6317
 21
38.1552
  0
LINE
  8
0
 10
83.6317
 20
38.1552
 11
83.6486
 21
38.246
  0
LINE
  8
0
 10
83.6486
 20
38.246
 11
83.6542
 21
38.346
  0
LINE
  8
0
 10
83.6542
 20
38.346
 11
83.6436
 21
38.4724
  0
LINE
  8
0
 10
83.6436
 20
38.4724
 11
83.6117
 21
38.5805
  0
LINE
  8
0
 10
83.6117
 20
38.5805
 11
83.5586
 21
38.6704
  0
LINE
  8
0
 10
83.5586
 20
38.6704
 11
83.4842
 21
38.742
  0
LINE
  8
0
 10
83.4842
 20
38.742
 11
83.3873
 21
38.7993
  0
LINE
  8
0
 10
83.3873
 20
38.7993
 11
83.2667
 21
38.8462
  0
LINE
  8
0
 10
83.2667
 20
38.8462
 11
83.1223
 21
38.8828
  0
LINE
  8
0
 10
83.1223
 20
38.8828
 11
82.9542
 21
38.909
  0
LINE
  8
0
 10
82.9542
 20
38.909
 11
78.1452
 21
38.909
  0
LINE
  8
0
 10
78.1452
 20
38.909
 11
77.8742
 21
38.888
  0
LINE
  8
0
 10
77.8742
 20
38.888
 11
77.6977
 21
38.8795
  0
LINE
  8
0
 10
77.6977
 20
38.8795
 11
77.5432
 21
38.854
  0
LINE
  8
0
 10
77.5432
 20
38.854
 11
77.4107
 21
38.8115
  0
LINE
  8
0
 10
77.4107
 20
38.8115
 11
77.3002
 21
38.752
  0
LINE
  8
0
 10
77.3002
 20
38.752
 11
77.2136
 21
38.6747
  0
LINE
  8
0
 10
77.2136
 20
38.6747
 11
77.1517
 21
38.5777
  0
LINE
  8
0
 10
77.1517
 20
38.5777
 11
77.1146
 21
38.4612
  0
LINE
  8
0
 10
77.1146
 20
38.4612
 11
77.1022
 21
38.325
  0
LINE
  8
0
 10
77.1022
 20
38.325
 11
77.1087
 21
38.2342
  0
LINE
  8
0
 10
77.1087
 20
38.2342
 11
77.1282
 21
38.15
  0
LINE
  8
0
 10
77.1282
 20
38.15
 11
77.1607
 21
38.0722
  0
LINE
  8
0
 10
77.1607
 20
38.0722
 11
77.2062
 21
38.001
  0
LINE
  8
0
 10
77.2062
 20
38.001
 11
77.2652
 21
37.938
  0
LINE
  8
0
 10
77.2652
 20
37.938
 11
77.337
 21
37.884
  0
LINE
  8
0
 10
77.337
 20
37.884
 11
77.4216
 21
37.839
  0
LINE
  8
0
 10
77.4216
 20
37.839
 11
77.5192
 21
37.803
  0
LINE
  8
0
 10
77.5192
 20
37.803
 11
77.6005
 21
37.7795
  0
LINE
  8
0
 10
77.6005
 20
37.7795
 11
77.7801
 21
37.7101
  0
LINE
  8
0
 10
77.7801
 20
37.7101
 11
77.8122
 21
37.699
  0
LINE
  8
0
 10
77.8122
 20
37.699
 11
77.9156
 21
37.6452
  0
LINE
  8
0
 10
77.9156
 20
37.6452
 11
77.997
 21
37.589
  0
LINE
  8
0
 10
77.997
 20
37.589
 11
78.0562
 21
37.5302
  0
LINE
  8
0
 10
78.0562
 20
37.5302
 11
78.0932
 21
37.469
  0
LINE
  8
0
 10
78.0932
 20
37.469
 11
78.116
 21
37.3961
  0
LINE
  8
0
 10
78.116
 20
37.3961
 11
78.1322
 21
37.3022
  0
LINE
  8
0
 10
78.1322
 20
37.3022
 11
78.142
 21
37.1876
  0
LINE
  8
0
 10
78.142
 20
37.1876
 11
78.1452
 21
37.052
  0
LINE
  8
0
 10
78.1452
 20
37.052
 11
78.1452
 21
26.835
  0
LINE
  8
0
 10
78.1452
 20
26.835
 11
78.142
 21
26.6907
  0
LINE
  8
0
 10
78.142
 20
26.6907
 11
78.1322
 21
26.5697
  0
LINE
  8
0
 10
78.1322
 20
26.5697
 11
78.116
 21
26.4722
  0
LINE
  8
0
 10
78.116
 20
26.4722
 11
78.0932
 21
26.398
  0
LINE
  8
0
 10
78.0932
 20
26.398
 11
78.0562
 21
26.3367
  0
LINE
  8
0
 10
78.0562
 20
26.3367
 11
77.997
 21
26.278
  0
LINE
  8
0
 10
77.997
 20
26.278
 11
77.9156
 21
26.2217
  0
LINE
  8
0
 10
77.9156
 20
26.2217
 11
77.8122
 21
26.168
  0
LINE
  8
0
 10
77.8122
 20
26.168
 11
77.7121
 21
26.1309
  0
LINE
  8
0
 10
77.7121
 20
26.1309
 11
77.639
 21
26.1011
  0
LINE
  8
0
 10
77.639
 20
26.1011
 11
77.5605
 21
26.0751
  0
LINE
  8
0
 10
77.5605
 20
26.0751
 11
77.5192
 21
26.064
  0
LINE
  8
0
 10
77.5192
 20
26.064
 11
77.4216
 21
26.0279
  0
LINE
  8
0
 10
77.4216
 20
26.0279
 11
77.337
 21
25.9827
  0
LINE
  8
0
 10
77.337
 20
25.9827
 11
77.2652
 21
25.9284
  0
LINE
  8
0
 10
77.2652
 20
25.9284
 11
77.2062
 21
25.865
  0
LINE
  8
0
 10
77.2062
 20
25.865
 11
77.1607
 21
25.7942
  0
LINE
  8
0
 10
77.1607
 20
25.7942
 11
77.1282
 21
25.7167
  0
LINE
  8
0
 10
77.1282
 20
25.7167
 11
77.1087
 21
25.6327
  0
LINE
  8
0
 10
77.1087
 20
25.6327
 11
77.1022
 21
25.542
  0
LINE
  8
0
 10
77.1022
 20
25.542
 11
77.114
 21
25.4149
  0
LINE
  8
0
 10
77.114
 20
25.4149
 11
77.1492
 21
25.3047
  0
LINE
  8
0
 10
77.1492
 20
25.3047
 11
77.208
 21
25.2114
  0
LINE
  8
0
 10
77.208
 20
25.2114
 11
77.2902
 21
25.135
  0
LINE
  8
0
 10
77.2902
 20
25.135
 11
77.3972
 21
25.0759
  0
LINE
  8
0
 10
77.3972
 20
25.0759
 11
77.5302
 21
25.0337
  0
LINE
  8
0
 10
77.5302
 20
25.0337
 11
77.6892
 21
25.0084
  0
LINE
  8
0
 10
77.6892
 20
25.0084
 11
77.8742
 21
25
  0
LINE
  8
0
 10
77.8742
 20
25
 11
82.9542
 21
25
  0
LINE
  8
0
 10
82.9542
 20
25
 11
83.1223
 21
25.0078
  0
LINE
  8
0
 10
-85.8165
 20
25.0084
 11
-85.6589
 21
25.0337
  0
LINE
  8
0
 10
-85.6589
 20
25.0337
 11
-85.524
 21
25.0759
  0
LINE
  8
0
 10
-85.524
 20
25.0759
 11
-85.4117
 21
25.135
  0
LINE
  8
0
 10
-85.4117
 20
25.135
 11
-85.3228
 21
25.2114
  0
LINE
  8
0
 10
-85.3228
 20
25.2114
 11
-85.2594
 21
25.3047
  0
LINE
  8
0
 10
-85.2594
 20
25.3047
 11
-85.2213
 21
25.4149
  0
LINE
  8
0
 10
-85.2213
 20
25.4149
 11
-85.2086
 21
25.542
  0
LINE
  8
0
 10
-85.2086
 20
25.542
 11
-85.2153
 21
25.6327
  0
LINE
  8
0
 10
-85.2153
 20
25.6327
 11
-85.2354
 21
25.7167
  0
LINE
  8
0
 10
-85.2354
 20
25.7167
 11
-85.2688
 21
25.7942
  0
LINE
  8
0
 10
-85.2688
 20
25.7942
 11
-85.3157
 21
25.865
  0
LINE
  8
0
 10
-85.3157
 20
25.865
 11
-85.3753
 21
25.9284
  0
LINE
  8
0
 10
-85.3753
 20
25.9284
 11
-85.4484
 21
25.9827
  0
LINE
  8
0
 10
-85.4484
 20
25.9827
 11
-85.5348
 21
26.0279
  0
LINE
  8
0
 10
-85.5348
 20
26.0279
 11
-85.6347
 21
26.064
  0
LINE
  8
0
 10
-85.6347
 20
26.064
 11
-85.7171
 21
26.0875
  0
LINE
  8
0
 10
-85.7171
 20
26.0875
 11
-85.9326
 21
26.168
  0
LINE
  8
0
 10
-85.9326
 20
26.168
 11
-86.0384
 21
26.2217
  0
LINE
  8
0
 10
-86.0384
 20
26.2217
 11
-86.1217
 21
26.278
  0
LINE
  8
0
 10
-86.1217
 20
26.278
 11
-86.1824
 21
26.3367
  0
LINE
  8
0
 10
-86.1824
 20
26.3367
 11
-86.2207
 21
26.398
  0
LINE
  8
0
 10
-86.2207
 20
26.398
 11
-86.2438
 21
26.4735
  0
LINE
  8
0
 10
-86.2438
 20
26.4735
 11
-86.2604
 21
26.575
  0
LINE
  8
0
 10
-86.2604
 20
26.575
 11
-86.2703
 21
26.7025
  0
LINE
  8
0
 10
-86.2703
 20
26.7025
 11
-86.2737
 21
26.856
  0
LINE
  8
0
 10
-86.2737
 20
26.856
 11
-86.2737
 21
37.032
  0
LINE
  8
0
 10
-86.2737
 20
37.032
 11
-86.2703
 21
37.1763
  0
LINE
  8
0
 10
-86.2703
 20
37.1763
 11
-86.2604
 21
37.2972
  0
LINE
  8
0
 10
-86.2604
 20
37.2972
 11
-86.2438
 21
37.3948
  0
LINE
  8
0
 10
-86.2438
 20
37.3948
 11
-86.2207
 21
37.469
  0
LINE
  8
0
 10
-86.2207
 20
37.469
 11
-86.1824
 21
37.5302
  0
LINE
  8
0
 10
-86.1824
 20
37.5302
 11
-86.1217
 21
37.589
  0
LINE
  8
0
 10
-86.1217
 20
37.589
 11
-86.0384
 21
37.6452
  0
LINE
  8
0
 10
-86.0384
 20
37.6452
 11
-85.9326
 21
37.699
  0
LINE
  8
0
 10
-85.9326
 20
37.699
 11
-85.831
 21
37.7361
  0
LINE
  8
0
 10
-85.831
 20
37.7361
 11
-85.7565
 21
37.7659
  0
LINE
  8
0
 10
-85.7565
 20
37.7659
 11
-85.6765
 21
37.7919
  0
LINE
  8
0
 10
-85.6765
 20
37.7919
 11
-85.6347
 21
37.803
  0
LINE
  8
0
 10
-85.6347
 20
37.803
 11
-85.5348
 21
37.839
  0
LINE
  8
0
 10
-85.5348
 20
37.839
 11
-85.4484
 21
37.884
  0
LINE
  8
0
 10
-85.4484
 20
37.884
 11
-85.3753
 21
37.938
  0
LINE
  8
0
 10
-85.3753
 20
37.938
 11
-85.3157
 21
38.001
  0
LINE
  8
0
 10
-85.3157
 20
38.001
 11
-85.2688
 21
38.0722
  0
LINE
  8
0
 10
-85.2688
 20
38.0722
 11
-85.2354
 21
38.15
  0
LINE
  8
0
 10
-85.2354
 20
38.15
 11
-85.2153
 21
38.2342
  0
LINE
  8
0
 10
-85.2153
 20
38.2342
 11
-85.2086
 21
38.325
  0
LINE
  8
0
 10
-85.2086
 20
38.325
 11
-85.2207
 21
38.4606
  0
LINE
  8
0
 10
-85.2207
 20
38.4606
 11
-85.2567
 21
38.5752
  0
LINE
  8
0
 10
-85.2567
 20
38.5752
 11
-85.3167
 21
38.6691
  0
LINE
  8
0
 10
-85.3167
 20
38.6691
 11
-85.4007
 21
38.742
  0
LINE
  8
0
 10
-85.4007
 20
38.742
 11
-85.5095
 21
38.7993
  0
LINE
  8
0
 10
-85.5095
 20
38.7993
 11
-85.6452
 21
38.8462
  0
LINE
  8
0
 10
-85.6452
 20
38.8462
 11
-85.8075
 21
38.8828
  0
LINE
  8
0
 10
-85.8075
 20
38.8828
 11
-85.9967
 21
38.909
  0
LINE
  8
0
 10
-85.9967
 20
38.909
 11
-90.7957
 21
38.909
  0
LINE
  8
0
 10
-90.7957
 20
38.909
 11
-91.0667
 21
38.888
  0
LINE
  8
0
 10
-91.0667
 20
38.888
 11
-91.2435
 21
38.8795
  0
LINE
  8
0
 10
-91.2435
 20
38.8795
 11
-91.3981
 21
38.854
  0
LINE
  8
0
 10
-91.3981
 20
38.854
 11
-91.5305
 21
38.8115
  0
LINE
  8
0
 10
-91.5305
 20
38.8115
 11
-91.6407
 21
38.752
  0
LINE
  8
0
 10
-91.6407
 20
38.752
 11
-91.7273
 21
38.6747
  0
LINE
  8
0
 10
-91.7273
 20
38.6747
 11
-91.7892
 21
38.5777
  0
LINE
  8
0
 10
-91.7892
 20
38.5777
 11
-91.8263
 21
38.4612
  0
LINE
  8
0
 10
-91.8263
 20
38.4612
 11
-91.8387
 21
38.325
  0
LINE
  8
0
 10
-91.8387
 20
38.325
 11
-91.8322
 21
38.2342
  0
LINE
  8
0
 10
-91.8322
 20
38.2342
 11
-91.8127
 21
38.15
  0
LINE
  8
0
 10
-91.8127
 20
38.15
 11
-91.7802
 21
38.0722
  0
LINE
  8
0
 10
-91.7802
 20
38.0722
 11
-91.7346
 21
38.001
  0
LINE
  8
0
 10
-91.7346
 20
38.001
 11
-91.6757
 21
37.938
  0
LINE
  8
0
 10
-91.6757
 20
37.938
 11
-91.6039
 21
37.884
  0
LINE
  8
0
 10
-91.6039
 20
37.884
 11
-91.5192
 21
37.839
  0
LINE
  8
0
 10
-91.5192
 20
37.839
 11
-91.4216
 21
37.803
  0
LINE
  8
0
 10
-91.4216
 20
37.803
 11
-91.3404
 21
37.7795
  0
LINE
  8
0
 10
-91.3404
 20
37.7795
 11
-91.1297
 21
37.699
  0
LINE
  8
0
 10
-91.1297
 20
37.699
 11
-91.0258
 21
37.6452
  0
LINE
  8
0
 10
-91.0258
 20
37.6452
 11
-90.9442
 21
37.589
  0
LINE
  8
0
 10
-90.9442
 20
37.589
 11
-90.8848
 21
37.5302
  0
LINE
  8
0
 10
-90.8848
 20
37.5302
 11
-90.8477
 21
37.469
  0
LINE
  8
0
 10
-90.8477
 20
37.469
 11
-90.8249
 21
37.3961
  0
LINE
  8
0
 10
-90.8249
 20
37.3961
 11
-90.8087
 21
37.3022
  0
LINE
  8
0
 10
-90.8087
 20
37.3022
 11
-90.7989
 21
37.1876
  0
LINE
  8
0
 10
-90.7989
 20
37.1876
 11
-90.7957
 21
37.052
  0
LINE
  8
0
 10
-90.7957
 20
37.052
 11
-90.7957
 21
26.835
  0
LINE
  8
0
 10
-90.7957
 20
26.835
 11
-90.7989
 21
26.6907
  0
LINE
  8
0
 10
-90.7989
 20
26.6907
 11
-90.8087
 21
26.5697
  0
LINE
  8
0
 10
-90.8087
 20
26.5697
 11
-90.8249
 21
26.4722
  0
LINE
  8
0
 10
-90.8249
 20
26.4722
 11
-90.8477
 21
26.398
  0
LINE
  8
0
 10
-90.8477
 20
26.398
 11
-90.8848
 21
26.3367
  0
LINE
  8
0
 10
-90.8848
 20
26.3367
 11
-90.9442
 21
26.278
  0
LINE
  8
0
 10
-90.9442
 20
26.278
 11
-91.0258
 21
26.2217
  0
LINE
  8
0
 10
-91.0258
 20
26.2217
 11
-91.1297
 21
26.168
  0
LINE
  8
0
 10
-91.1297
 20
26.168
 11
-91.2288
 21
26.1309
  0
LINE
  8
0
 10
-91.2288
 20
26.1309
 11
-91.3018
 21
26.1011
  0
LINE
  8
0
 10
-91.3018
 20
26.1011
 11
-91.3803
 21
26.0751
  0
LINE
  8
0
 10
-91.3803
 20
26.0751
 11
-91.4216
 21
26.064
  0
LINE
  8
0
 10
-91.4216
 20
26.064
 11
-91.5192
 21
26.0279
  0
LINE
  8
0
 10
-91.5192
 20
26.0279
 11
-91.6039
 21
25.9827
  0
LINE
  8
0
 10
-91.6039
 20
25.9827
 11
-91.6757
 21
25.9284
  0
LINE
  8
0
 10
-91.6757
 20
25.9284
 11
-91.7346
 21
25.865
  0
LINE
  8
0
 10
-91.7346
 20
25.865
 11
-91.7802
 21
25.7942
  0
LINE
  8
0
 10
-91.7802
 20
25.7942
 11
-91.8127
 21
25.7167
  0
LINE
  8
0
 10
-91.8127
 20
25.7167
 11
-91.8322
 21
25.6327
  0
LINE
  8
0
 10
-91.8322
 20
25.6327
 11
-91.8387
 21
25.542
  0
LINE
  8
0
 10
-91.8387
 20
25.542
 11
-91.827
 21
25.4149
  0
LINE
  8
0
 10
-91.827
 20
25.4149
 11
-91.7919
 21
25.3047
  0
LINE
  8
0
 10
-91.7919
 20
25.3047
 11
-91.7335
 21
25.2114
  0
LINE
  8
0
 10
-91.7335
 20
25.2114
 11
-91.6517
 21
25.135
  0
LINE
  8
0
 10
-91.6517
 20
25.135
 11
-91.5446
 21
25.0759
  0
LINE
  8
0
 10
-91.5446
 20
25.0759
 11
-91.4114
 21
25.0337
  0
LINE
  8
0
 10
-91.4114
 20
25.0337
 11
-91.2521
 21
25.0084
  0
LINE
  8
0
 10
-91.2521
 20
25.0084
 11
-91.0667
 21
25
  0
LINE
  8
0
 10
-91.0667
 20
25
 11
-85.9967
 21
25
  0
LINE
  8
0
 10
-85.9967
 20
25
 11
-85.8165
 21
25.0084
  0
LINE
  8
0
 10
90.1221
 20
25.0084
 11
90.2767
 21
25.0337
  0
LINE
  8
0
 10
90.2767
 20
25.0337
 11
90.4091
 21
25.0759
  0
LINE
  8
0
 10
90.4091
 20
25.0759
 11
90.5192
 21
25.135
  0
LINE
  8
0
 10
90.5192
 20
25.135
 11
90.6058
 21
25.2114
  0
LINE
  8
0
 10
90.6058
 20
25.2114
 11
90.6677
 21
25.3047
  0
LINE
  8
0
 10
90.6677
 20
25.3047
 11
90.7048
 21
25.4149
  0
LINE
  8
0
 10
90.7048
 20
25.4149
 11
90.7172
 21
25.542
  0
LINE
  8
0
 10
90.7172
 20
25.542
 11
90.7106
 21
25.6327
  0
LINE
  8
0
 10
90.7106
 20
25.6327
 11
90.691
 21
25.7167
  0
LINE
  8
0
 10
90.691
 20
25.7167
 11
90.6582
 21
25.7942
  0
LINE
  8
0
 10
90.6582
 20
25.7942
 11
90.6122
 21
25.865
  0
LINE
  8
0
 10
90.6122
 20
25.865
 11
90.5537
 21
25.9284
  0
LINE
  8
0
 10
90.5537
 20
25.9284
 11
90.4822
 21
25.9827
  0
LINE
  8
0
 10
90.4822
 20
25.9827
 11
90.3977
 21
26.0279
  0
LINE
  8
0
 10
90.3977
 20
26.0279
 11
90.3002
 21
26.064
  0
LINE
  8
0
 10
90.3002
 20
26.064
 11
90.2162
 21
26.0875
  0
LINE
  8
0
 10
90.2162
 20
26.0875
 11
89.9872
 21
26.168
  0
LINE
  8
0
 10
89.9872
 20
26.168
 11
89.8925
 21
26.2217
  0
LINE
  8
0
 10
89.8925
 20
26.2217
 11
89.8175
 21
26.278
  0
LINE
  8
0
 10
89.8175
 20
26.278
 11
89.762
 21
26.3367
  0
LINE
  8
0
 10
89.762
 20
26.3367
 11
89.7262
 21
26.398
  0
LINE
  8
0
 10
89.7262
 20
26.398
 11
89.7035
 21
26.4735
  0
LINE
  8
0
 10
89.7035
 20
26.4735
 11
89.6872
 21
26.575
  0
LINE
  8
0
 10
89.6872
 20
26.575
 11
89.6775
 21
26.7025
  0
LINE
  8
0
 10
89.6775
 20
26.7025
 11
89.6742
 21
26.856
  0
LINE
  8
0
 10
89.6742
 20
26.856
 11
89.6742
 21
37.032
  0
LINE
  8
0
 10
89.6742
 20
37.032
 11
89.6775
 21
37.1763
  0
LINE
  8
0
 10
89.6775
 20
37.1763
 11
89.6872
 21
37.2972
  0
LINE
  8
0
 10
89.6872
 20
37.2972
 11
89.7035
 21
37.3948
  0
LINE
  8
0
 10
89.7035
 20
37.3948
 11
89.7262
 21
37.469
  0
LINE
  8
0
 10
89.7262
 20
37.469
 11
89.7633
 21
37.5302
  0
LINE
  8
0
 10
89.7633
 20
37.5302
 11
89.8227
 21
37.589
  0
LINE
  8
0
 10
89.8227
 20
37.589
 11
89.9043
 21
37.6452
  0
LINE
  8
0
 10
89.9043
 20
37.6452
 11
90.0082
 21
37.699
  0
LINE
  8
0
 10
90.0082
 20
37.699
 11
90.1074
 21
37.7361
  0
LINE
  8
0
 10
90.1074
 20
37.7361
 11
90.1804
 21
37.7659
  0
LINE
  8
0
 10
90.1804
 20
37.7659
 11
90.2589
 21
37.7919
  0
LINE
  8
0
 10
90.2589
 20
37.7919
 11
90.3002
 21
37.803
  0
LINE
  8
0
 10
90.3002
 20
37.803
 11
90.3977
 21
37.839
  0
LINE
  8
0
 10
90.3977
 20
37.839
 11
90.4822
 21
37.884
  0
LINE
  8
0
 10
90.4822
 20
37.884
 11
90.5537
 21
37.938
  0
LINE
  8
0
 10
90.5537
 20
37.938
 11
90.6122
 21
38.001
  0
LINE
  8
0
 10
90.6122
 20
38.001
 11
90.6582
 21
38.0722
  0
LINE
  8
0
 10
90.6582
 20
38.0722
 11
90.691
 21
38.15
  0
LINE
  8
0
 10
90.691
 20
38.15
 11
90.7106
 21
38.2342
  0
LINE
  8
0
 10
90.7106
 20
38.2342
 11
90.7172
 21
38.325
  0
LINE
  8
0
 10
90.7172
 20
38.325
 11
90.7055
 21
38.4606
  0
LINE
  8
0
 10
90.7055
 20
38.4606
 11
90.6702
 21
38.5752
  0
LINE
  8
0
 10
90.6702
 20
38.5752
 11
90.6115
 21
38.6691
  0
LINE
  8
0
 10
90.6115
 20
38.6691
 11
90.5292
 21
38.742
  0
LINE
  8
0
 10
90.5292
 20
38.742
 11
90.4226
 21
38.7993
  0
LINE
  8
0
 10
90.4226
 20
38.7993
 11
90.2897
 21
38.8462
  0
LINE
  8
0
 10
90.2897
 20
38.8462
 11
90.1306
 21
38.8828
  0
LINE
  8
0
 10
90.1306
 20
38.8828
 11
89.9452
 21
38.909
  0
LINE
  8
0
 10
89.9452
 20
38.909
 11
85.1132
 21
38.909
  0
LINE
  8
0
 10
85.1132
 20
38.909
 11
84.8422
 21
38.888
  0
LINE
  8
0
 10
84.8422
 20
38.888
 11
84.6763
 21
38.8795
  0
LINE
  8
0
 10
84.6763
 20
38.8795
 11
84.5325
 21
38.854
  0
LINE
  8
0
 10
84.5325
 20
38.854
 11
84.4108
 21
38.8115
  0
LINE
  8
0
 10
84.4108
 20
38.8115
 11
84.3112
 21
38.752
  0
LINE
  8
0
 10
84.3112
 20
38.752
 11
84.2338
 21
38.6747
  0
LINE
  8
0
 10
84.2338
 20
38.6747
 11
84.1785
 21
38.5777
  0
LINE
  8
0
 10
84.1785
 20
38.5777
 11
84.1453
 21
38.4612
  0
LINE
  8
0
 10
84.1453
 20
38.4612
 11
84.1342
 21
38.325
  0
LINE
  8
0
 10
84.1342
 20
38.325
 11
84.14
 21
38.2219
  0
LINE
  8
0
 10
84.14
 20
38.2219
 11
84.1575
 21
38.1295
  0
LINE
  8
0
 10
84.1575
 20
38.1295
 11
84.1865
 21
38.0479
  0
LINE
  8
0
 10
84.1865
 20
38.0479
 11
84.2272
 21
37.977
  0
LINE
  8
0
 10
84.2272
 20
37.977
 11
84.2795
 21
37.9174
  0
LINE
  8
0
 10
84.2795
 20
37.9174
 11
84.3435
 21
37.8685
  0
LINE
  8
0
 10
84.3435
 20
37.8685
 11
84.419
 21
37.8304
  0
LINE
  8
0
 10
84.419
 20
37.8304
 11
84.5062
 21
37.803
  0
LINE
  8
0
 10
84.5062
 20
37.803
 11
84.8372
 21
37.679
  0
LINE
  8
0
 10
84.8372
 20
37.679
 11
84.9047
 21
37.6502
  0
LINE
  8
0
 10
84.9047
 20
37.6502
 11
84.9632
 21
37.606
  0
LINE
  8
0
 10
84.9632
 20
37.606
 11
85.0127
 21
37.5462
  0
LINE
  8
0
 10
85.0127
 20
37.5462
 11
85.0532
 21
37.471
  0
LINE
  8
0
 10
85.0532
 20
37.471
 11
85.0852
 21
37.3815
  0
LINE
  8
0
 10
85.0852
 20
37.3815
 11
85.108
 21
37.279
  0
LINE
  8
0
 10
85.108
 20
37.279
 11
85.1217
 21
37.1635
  0
LINE
  8
0
 10
85.1217
 20
37.1635
 11
85.1262
 21
37.035
  0
LINE
  8
0
 10
85.1262
 20
37.035
 11
85.1262
 21
32.616
  0
LINE
  8
0
 10
85.1262
 20
32.616
 11
83.5282
 21
32.616
  0
LINE
  8
0
 10
83.5282
 20
32.616
 11
83.5282
 21
31.49
  0
LINE
  8
0
 10
83.5282
 20
31.49
 11
85.1262
 21
31.49
  0
LINE
  8
0
 10
85.1262
 20
31.49
 11
85.1262
 21
26.836
  0
LINE
  8
0
 10
85.1262
 20
26.836
 11
85.1217
 21
26.7063
  0
LINE
  8
0
 10
85.1217
 20
26.7063
 11
85.108
 21
26.5882
  0
LINE
  8
0
 10
85.108
 20
26.5882
 11
85.0852
 21
26.4818
  0
LINE
  8
0
 10
85.0852
 20
26.4818
 11
85.0532
 21
26.387
  0
LINE
  8
0
 10
85.0532
 20
26.387
 11
85.0127
 21
26.3082
  0
LINE
  8
0
 10
85.0127
 20
26.3082
 11
84.9632
 21
26.249
  0
LINE
  8
0
 10
84.9632
 20
26.249
 11
84.9047
 21
26.2092
  0
LINE
  8
0
 10
84.9047
 20
26.2092
 11
84.8372
 21
26.189
  0
LINE
  8
0
 10
84.8372
 20
26.189
 11
84.5062
 21
26.064
  0
LINE
  8
0
 10
84.5062
 20
26.064
 11
84.4275
 21
26.0273
  0
LINE
  8
0
 10
84.4275
 20
26.0273
 11
84.3565
 21
25.9802
  0
LINE
  8
0
 10
84.3565
 20
25.9802
 11
84.293
 21
25.9228
  0
LINE
  8
0
 10
84.293
 20
25.9228
 11
84.2372
 21
25.855
  0
LINE
  8
0
 10
84.2372
 20
25.855
 11
84.1922
 21
25.7798
  0
LINE
  8
0
 10
84.1922
 20
25.7798
 11
84.16
 21
25.6992
  0
LINE
  8
0
 10
84.16
 20
25.6992
 11
84.1407
 21
25.6133
  0
LINE
  8
0
 10
84.1407
 20
25.6133
 11
84.1342
 21
25.522
  0
LINE
  8
0
 10
84.1342
 20
25.522
 11
84.1453
 21
25.3956
  0
LINE
  8
0
 10
84.1453
 20
25.3956
 11
84.1785
 21
25.2872
  0
LINE
  8
0
 10
84.1785
 20
25.2872
 11
84.2338
 21
25.1971
  0
LINE
  8
0
 10
84.2338
 20
25.1971
 11
84.3112
 21
25.125
  0
LINE
  8
0
 10
84.3112
 20
25.125
 11
84.4108
 21
25.0703
  0
LINE
  8
0
 10
84.4108
 20
25.0703
 11
84.5325
 21
25.0312
  0
LINE
  8
0
 10
84.5325
 20
25.0312
 11
84.6763
 21
25.0078
  0
LINE
  8
0
 10
84.6763
 20
25.0078
 11
84.8422
 21
25
  0
LINE
  8
0
 10
84.8422
 20
25
 11
89.9452
 21
25
  0
LINE
  8
0
 10
89.9452
 20
25
 11
90.1221
 21
25.0084
  0
LINE
  8
0
 10
-60.1202
 20
25.0084
 11
-59.9292
 21
25.0337
  0
LINE
  8
0
 10
-59.9292
 20
25.0337
 11
-59.7707
 21
25.0759
  0
LINE
  8
0
 10
-59.7707
 20
25.0759
 11
-59.6449
 21
25.135
  0
LINE
  8
0
 10
-59.6449
 20
25.135
 11
-59.5491
 21
25.2127
  0
LINE
  8
0
 10
-59.5491
 20
25.2127
 11
-59.4807
 21
25.31
  0
LINE
  8
0
 10
-59.4807
 20
25.31
 11
-59.4396
 21
25.4267
  0
LINE
  8
0
 10
-59.4396
 20
25.4267
 11
-59.4259
 21
25.563
  0
LINE
  8
0
 10
-59.4259
 20
25.563
 11
-59.4344
 21
25.6629
  0
LINE
  8
0
 10
-59.4344
 20
25.6629
 11
-59.4599
 21
25.7535
  0
LINE
  8
0
 10
-59.4599
 20
25.7535
 11
-59.5024
 21
25.8349
  0
LINE
  8
0
 10
-59.5024
 20
25.8349
 11
-59.5619
 21
25.907
  0
LINE
  8
0
 10
-59.5619
 20
25.907
 11
-59.6353
 21
25.9691
  0
LINE
  8
0
 10
-59.6353
 20
25.9691
 11
-59.7204
 21
26.0195
  0
LINE
  8
0
 10
-59.7204
 20
26.0195
 11
-59.8173
 21
26.0581
  0
LINE
  8
0
 10
-59.8173
 20
26.0581
 11
-59.9259
 21
26.085
  0
LINE
  8
0
 10
-59.9259
 20
26.085
 11
-60.0142
 21
26.1103
  0
LINE
  8
0
 10
-60.0142
 20
26.1103
 11
-60.0957
 21
26.1292
  0
LINE
  8
0
 10
-60.0957
 20
26.1292
 11
-60.1559
 21
26.147
  0
LINE
  8
0
 10
-60.1559
 20
26.147
 11
-60.3167
 21
26.202
  0
LINE
  8
0
 10
-60.3167
 20
26.202
 11
-60.4449
 21
26.262
  0
LINE
  8
0
 10
-60.4449
 20
26.262
 11
-60.5406
 21
26.327
  0
LINE
  8
0
 10
-60.5406
 20
26.327
 11
-60.6039
 21
26.397
  0
LINE
  8
0
 10
-60.6039
 20
26.397
 11
-60.645
 21
26.4856
  0
LINE
  8
0
 10
-60.645
 20
26.4856
 11
-60.6744
 21
26.6055
  0
LINE
  8
0
 10
-60.6744
 20
26.6055
 11
-60.692
 21
26.7566
  0
LINE
  8
0
 10
-60.692
 20
26.7566
 11
-60.6979
 21
26.939
  0
LINE
  8
0
 10
-60.6979
 20
26.939
 11
-60.6979
 21
38.888
  0
LINE
  8
0
 10
-60.6979
 20
38.888
 11
-65.2239
 21
38.888
  0
LINE
  8
0
 10
-65.2239
 20
38.888
 11
-65.2239
 21
26.918
  0
LINE
  8
0
 10
-65.2239
 20
26.918
 11
-65.2291
 21
26.7448
  0
LINE
  8
0
 10
-65.2291
 20
26.7448
 11
-65.2447
 21
26.6002
  0
LINE
  8
0
 10
-65.2447
 20
26.6002
 11
-65.2706
 21
26.4843
  0
LINE
  8
0
 10
-65.2706
 20
26.4843
 11
-65.3069
 21
26.397
  0
LINE
  8
0
 10
-65.3069
 20
26.397
 11
-65.3654
 21
26.327
  0
LINE
  8
0
 10
-65.3654
 20
26.327
 11
-65.4579
 21
26.262
  0
LINE
  8
0
 10
-65.4579
 20
26.262
 11
-65.5844
 21
26.202
  0
LINE
  8
0
 10
-65.5844
 20
26.202
 11
-65.7449
 21
26.147
  0
LINE
  8
0
 10
-65.7449
 20
26.147
 11
-65.7922
 21
26.1292
  0
LINE
  8
0
 10
-65.7922
 20
26.1292
 11
-65.8499
 21
26.116
  0
LINE
  8
0
 10
-65.8499
 20
26.116
 11
-65.9553
 21
26.0948
  0
LINE
  8
0
 10
-65.9553
 20
26.0948
 11
-66.1039
 21
26.0581
  0
LINE
  8
0
 10
-66.1039
 20
26.0581
 11
-66.1989
 21
26.0195
  0
LINE
  8
0
 10
-66.1989
 20
26.0195
 11
-66.2809
 21
25.9691
  0
LINE
  8
0
 10
-66.2809
 20
25.9691
 11
-66.3499
 21
25.907
  0
LINE
  8
0
 10
-66.3499
 20
25.907
 11
-66.4046
 21
25.8349
  0
LINE
  8
0
 10
-66.4046
 20
25.8349
 11
-66.4436
 21
25.7535
  0
LINE
  8
0
 10
-66.4436
 20
25.7535
 11
-66.4671
 21
25.6629
  0
LINE
  8
0
 10
-66.4671
 20
25.6629
 11
-66.4749
 21
25.563
  0
LINE
  8
0
 10
-66.4749
 20
25.563
 11
-66.4612
 21
25.4267
  0
LINE
  8
0
 10
-66.4612
 20
25.4267
 11
-66.4202
 21
25.31
  0
LINE
  8
0
 10
-66.4202
 20
25.31
 11
-66.3517
 21
25.2127
  0
LINE
  8
0
 10
-66.3517
 20
25.2127
 11
-66.2559
 21
25.135
  0
LINE
  8
0
 10
-66.2559
 20
25.135
 11
-66.1314
 21
25.0759
  0
LINE
  8
0
 10
-66.1314
 20
25.0759
 11
-65.9769
 21
25.0337
  0
LINE
  8
0
 10
-65.9769
 20
25.0337
 11
-65.7924
 21
25.0084
  0
LINE
  8
0
 10
-65.7924
 20
25.0084
 11
-65.5779
 21
25
  0
LINE
  8
0
 10
-65.5779
 20
25
 11
-60.3439
 21
25
  0
LINE
  8
0
 10
-60.3439
 20
25
 11
-60.1202
 21
25.0084
  0
LINE
  8
0
 10
-67.9612
 20
33.9954
 11
-67.8502
 21
34.0267
  0
LINE
  8
0
 10
-67.8502
 20
34.0267
 11
-67.7497
 21
34.0789
  0
LINE
  8
0
 10
-67.7497
 20
34.0789
 11
-67.6599
 21
34.152
  0
LINE
  8
0
 10
-67.6599
 20
34.152
 11
-67.5833
 21
34.2459
  0
LINE
  8
0
 10
-67.5833
 20
34.2459
 11
-67.5227
 21
34.3607
  0
LINE
  8
0
 10
-67.5227
 20
34.3607
 11
-67.4778
 21
34.4964
  0
LINE
  8
0
 10
-67.4778
 20
34.4964
 11
-67.4489
 21
34.653
  0
LINE
  8
0
 10
-67.4489
 20
34.653
 11
-67.3489
 21
35.258
  0
LINE
  8
0
 10
-67.3489
 20
35.258
 11
-67.26
 21
35.6784
  0
LINE
  8
0
 10
-67.26
 20
35.6784
 11
-67.1524
 21
36.0635
  0
LINE
  8
0
 10
-67.1524
 20
36.0635
 11
-67.026
 21
36.4134
  0
LINE
  8
0
 10
-67.026
 20
36.4134
 11
-66.8809
 21
36.728
  0
LINE
  8
0
 10
-66.8809
 20
36.728
 11
-66.7146
 21
37.0079
  0
LINE
  8
0
 10
-66.7146
 20
37.0079
 11
-66.5247
 21
37.2525
  0
LINE
  8
0
 10
-66.5247
 20
37.2525
 11
-66.3111
 21
37.4619
  0
LINE
  8
0
 10
-66.3111
 20
37.4619
 11
-66.0739
 21
37.636
  0
LINE
  8
0
 10
-66.0739
 20
37.636
 11
-66.0739
 21
38.888
  0
LINE
  8
0
 10
-66.0739
 20
38.888
 11
-68.6959
 21
38.888
  0
LINE
  8
0
 10
-68.6959
 20
38.888
 11
-68.6959
 21
34.653
  0
LINE
  8
0
 10
-68.6959
 20
34.653
 11
-68.6853
 21
34.5135
  0
LINE
  8
0
 10
-68.6853
 20
34.5135
 11
-68.6537
 21
34.387
  0
LINE
  8
0
 10
-68.6537
 20
34.387
 11
-68.6008
 21
34.2735
  0
LINE
  8
0
 10
-68.6008
 20
34.2735
 11
-68.5269
 21
34.173
  0
LINE
  8
0
 10
-68.5269
 20
34.173
 11
-68.4358
 21
34.0907
  0
LINE
  8
0
 10
-68.4358
 20
34.0907
 11
-68.3314
 21
34.032
  0
LINE
  8
0
 10
-68.3314
 20
34.032
 11
-68.2138
 21
33.9967
  0
LINE
  8
0
 10
-68.2138
 20
33.9967
 11
-68.0829
 21
33.985
  0
LINE
  8
0
 10
-68.0829
 20
33.985
 11
-67.9612
 21
33.9954
  0
LINE
  8
0
 10
-57.6513
 20
34.0167
 11
-57.5377
 21
34.052
  0
LINE
  8
0
 10
-57.5377
 20
34.052
 11
-57.4368
 21
34.1107
  0
LINE
  8
0
 10
-57.4368
 20
34.1107
 11
-57.3489
 21
34.193
  0
LINE
  8
0
 10
-57.3489
 20
34.193
 11
-57.2771
 21
34.2948
  0
LINE
  8
0
 10
-57.2771
 20
34.2948
 11
-57.2259
 21
34.4122
  0
LINE
  8
0
 10
-57.2259
 20
34.4122
 11
-57.1952
 21
34.5453
  0
LINE
  8
0
 10
-57.1952
 20
34.5453
 11
-57.1849
 21
34.694
  0
LINE
  8
0
 10
-57.1849
 20
34.694
 11
-57.1849
 21
38.888
  0
LINE
  8
0
 10
-57.1849
 20
38.888
 11
-59.8709
 21
38.888
  0
LINE
  8
0
 10
-59.8709
 20
38.888
 11
-59.8709
 21
37.636
  0
LINE
  8
0
 10
-59.8709
 20
37.636
 11
-59.6156
 21
37.4706
  0
LINE
  8
0
 10
-59.6156
 20
37.4706
 11
-59.3857
 21
37.2675
  0
LINE
  8
0
 10
-59.3857
 20
37.2675
 11
-59.1811
 21
37.0266
  0
LINE
  8
0
 10
-59.1811
 20
37.0266
 11
-59.0019
 21
36.748
  0
LINE
  8
0
 10
-59.0019
 20
36.748
 11
-58.8468
 21
36.4347
  0
LINE
  8
0
 10
-58.8468
 20
36.4347
 11
-58.7146
 21
36.0887
  0
LINE
  8
0
 10
-58.7146
 20
36.0887
 11
-58.6053
 21
35.7102
  0
LINE
  8
0
 10
-58.6053
 20
35.7102
 11
-58.5189
 21
35.299
  0
LINE
  8
0
 10
-58.5189
 20
35.299
 11
-58.4119
 21
34.652
  0
LINE
  8
0
 10
-58.4119
 20
34.652
 11
-58.375
 21
34.5131
  0
LINE
  8
0
 10
-58.375
 20
34.5131
 11
-58.3251
 21
34.3885
  0
LINE
  8
0
 10
-58.3251
 20
34.3885
 11
-58.2625
 21
34.2781
  0
LINE
  8
0
 10
-58.2625
 20
34.2781
 11
-58.1869
 21
34.182
  0
LINE
  8
0
 10
-58.1869
 20
34.182
 11
-58.0998
 21
34.1046
  0
LINE
  8
0
 10
-58.0998
 20
34.1046
 11
-58.0027
 21
34.0492
  0
LINE
  8
0
 10
-58.0027
 20
34.0492
 11
-57.8953
 21
34.0161
  0
LINE
  8
0
 10
-57.8953
 20
34.0161
 11
-57.7779
 21
34.005
  0
LINE
  8
0
 10
-57.7779
 20
34.005
 11
-57.6513
 21
34.0167
  0
LINE
  8
0
 10
21.6228
 20
25.0084
 11
21.8119
 21
25.0337
  0
LINE
  8
0
 10
21.8119
 20
25.0337
 11
21.9669
 21
25.0759
  0
LINE
  8
0
 10
21.9669
 20
25.0759
 11
22.0879
 21
25.135
  0
LINE
  8
0
 10
22.0879
 20
25.135
 11
22.1793
 21
25.2127
  0
LINE
  8
0
 10
22.1793
 20
25.2127
 11
22.2446
 21
25.31
  0
LINE
  8
0
 10
22.2446
 20
25.31
 11
22.2838
 21
25.4267
  0
LINE
  8
0
 10
22.2838
 20
25.4267
 11
22.2969
 21
25.563
  0
LINE
  8
0
 10
22.2969
 20
25.563
 11
22.289
 21
25.6624
  0
LINE
  8
0
 10
22.289
 20
25.6624
 11
22.2656
 21
25.7527
  0
LINE
  8
0
 10
22.2656
 20
25.7527
 11
22.2265
 21
25.8339
  0
LINE
  8
0
 10
22.2265
 20
25.8339
 11
22.1719
 21
25.906
  0
LINE
  8
0
 10
22.1719
 20
25.906
 11
22.1028
 21
25.9694
  0
LINE
  8
0
 10
22.1028
 20
25.9694
 11
22.0206
 21
26.0235
  0
LINE
  8
0
 10
22.0206
 20
26.0235
 11
21.9253
 21
26.0684
  0
LINE
  8
0
 10
21.9253
 20
26.0684
 11
21.8168
 21
26.104
  0
LINE
  8
0
 10
21.8168
 20
26.104
 11
21.7036
 21
26.1355
  0
LINE
  8
0
 10
21.7036
 20
26.1355
 11
21.6394
 21
26.1552
  0
LINE
  8
0
 10
21.6394
 20
26.1552
 11
21.6081
 21
26.1617
  0
LINE
  8
0
 10
21.6081
 20
26.1617
 11
21.5769
 21
26.1657
  0
LINE
  8
0
 10
21.5769
 20
26.1657
 11
21.5459
 21
26.167
  0
LINE
  8
0
 10
21.5459
 20
26.167
 11
21.3945
 21
26.2216
  0
LINE
  8
0
 10
21.3945
 20
26.2216
 11
21.2744
 21
26.2812
  0
LINE
  8
0
 10
21.2744
 20
26.2812
 11
21.1855
 21
26.3461
  0
LINE
  8
0
 10
21.1855
 20
26.3461
 11
21.1279
 21
26.416
  0
LINE
  8
0
 10
21.1279
 20
26.416
 11
21.0915
 21
26.5033
  0
LINE
  8
0
 10
21.0915
 20
26.5033
 11
21.0656
 21
26.6192
  0
LINE
  8
0
 10
21.0656
 20
26.6192
 11
21.05
 21
26.7638
  0
LINE
  8
0
 10
21.05
 20
26.7638
 11
21.0449
 21
26.937
  0
LINE
  8
0
 10
21.0449
 20
26.937
 11
21.0449
 21
38.888
  0
LINE
  8
0
 10
21.0449
 20
38.888
 11
16.4969
 21
38.888
  0
LINE
  8
0
 10
16.4969
 20
38.888
 11
16.2259
 21
38.867
  0
LINE
  8
0
 10
16.2259
 20
38.867
 11
16.049
 21
38.8585
  0
LINE
  8
0
 10
16.049
 20
38.8585
 11
15.8943
 21
38.833
  0
LINE
  8
0
 10
15.8943
 20
38.833
 11
15.762
 21
38.7905
  0
LINE
  8
0
 10
15.762
 20
38.7905
 11
15.6519
 21
38.731
  0
LINE
  8
0
 10
15.6519
 20
38.731
 11
15.5652
 21
38.655
  0
LINE
  8
0
 10
15.5652
 20
38.655
 11
15.5034
 21
38.562
  0
LINE
  8
0
 10
15.5034
 20
38.562
 11
15.4662
 21
38.452
  0
LINE
  8
0
 10
15.4662
 20
38.452
 11
15.4539
 21
38.325
  0
LINE
  8
0
 10
15.4539
 20
38.325
 11
15.4604
 21
38.2262
  0
LINE
  8
0
 10
15.4604
 20
38.2262
 11
15.4799
 21
38.1377
  0
LINE
  8
0
 10
15.4799
 20
38.1377
 11
15.5124
 21
38.0597
  0
LINE
  8
0
 10
15.5124
 20
38.0597
 11
15.5579
 21
37.992
  0
LINE
  8
0
 10
15.5579
 20
37.992
 11
15.6164
 21
37.9321
  0
LINE
  8
0
 10
15.6164
 20
37.9321
 11
15.6881
 21
37.8775
  0
LINE
  8
0
 10
15.6881
 20
37.8775
 11
15.7729
 21
37.8281
  0
LINE
  8
0
 10
15.7729
 20
37.8281
 11
15.8708
 21
37.784
  0
LINE
  8
0
 10
15.8708
 20
37.784
 11
15.9514
 21
37.7602
  0
LINE
  8
0
 10
15.9514
 20
37.7602
 11
16.1307
 21
37.6907
  0
LINE
  8
0
 10
16.1307
 20
37.6907
 11
16.1629
 21
37.68
  0
LINE
  8
0
 10
16.1629
 20
37.68
 11
16.2663
 21
37.6267
  0
LINE
  8
0
 10
16.2663
 20
37.6267
 11
16.3476
 21
37.5707
  0
LINE
  8
0
 10
16.3476
 20
37.5707
 11
16.4068
 21
37.5122
  0
LINE
  8
0
 10
16.4068
 20
37.5122
 11
16.4439
 21
37.451
  0
LINE
  8
0
 10
16.4439
 20
37.451
 11
16.467
 21
37.3781
  0
LINE
  8
0
 10
16.467
 20
37.3781
 11
16.4836
 21
37.2842
  0
LINE
  8
0
 10
16.4836
 20
37.2842
 11
16.4935
 21
37.1696
  0
LINE
  8
0
 10
16.4935
 20
37.1696
 11
16.4969
 21
37.034
  0
LINE
  8
0
 10
16.4969
 20
37.034
 11
16.4969
 21
26.834
  0
LINE
  8
0
 10
16.4969
 20
26.834
 11
16.4929
 21
26.6982
  0
LINE
  8
0
 10
16.4929
 20
26.6982
 11
16.4811
 21
26.5817
  0
LINE
  8
0
 10
16.4811
 20
26.5817
 11
16.4614
 21
26.4847
  0
LINE
  8
0
 10
16.4614
 20
26.4847
 11
16.4339
 21
26.407
  0
LINE
  8
0
 10
16.4339
 20
26.407
 11
16.3923
 21
26.3414
  0
LINE
  8
0
 10
16.3923
 20
26.3414
 11
16.3298
 21
26.2797
  0
LINE
  8
0
 10
16.3298
 20
26.2797
 11
16.2464
 21
26.2219
  0
LINE
  8
0
 10
16.2464
 20
26.2219
 11
16.0921
 21
26.1445
  0
LINE
  8
0
 10
16.0921
 20
26.1445
 11
15.9897
 21
26.1011
  0
LINE
  8
0
 10
15.9897
 20
26.1011
 11
15.9117
 21
26.0751
  0
LINE
  8
0
 10
15.9117
 20
26.0751
 11
15.8708
 21
26.064
  0
LINE
  8
0
 10
15.8708
 20
26.064
 11
15.7729
 21
26.0279
  0
LINE
  8
0
 10
15.7729
 20
26.0279
 11
15.6881
 21
25.9827
  0
LINE
  8
0
 10
15.6881
 20
25.9827
 11
15.6164
 21
25.9284
  0
LINE
  8
0
 10
15.6164
 20
25.9284
 11
15.5579
 21
25.865
  0
LINE
  8
0
 10
15.5579
 20
25.865
 11
15.5124
 21
25.7942
  0
LINE
  8
0
 10
15.5124
 20
25.7942
 11
15.4799
 21
25.7167
  0
LINE
  8
0
 10
15.4799
 20
25.7167
 11
15.4604
 21
25.6327
  0
LINE
  8
0
 10
15.4604
 20
25.6327
 11
15.4539
 21
25.542
  0
LINE
  8
0
 10
15.4539
 20
25.542
 11
15.4655
 21
25.4149
  0
LINE
  8
0
 10
15.4655
 20
25.4149
 11
15.5006
 21
25.3047
  0
LINE
  8
0
 10
15.5006
 20
25.3047
 11
15.559
 21
25.2114
  0
LINE
  8
0
 10
15.559
 20
25.2114
 11
15.6409
 21
25.135
  0
LINE
  8
0
 10
15.6409
 20
25.135
 11
15.7479
 21
25.0759
  0
LINE
  8
0
 10
15.7479
 20
25.0759
 11
15.8811
 21
25.0337
  0
LINE
  8
0
 10
15.8811
 20
25.0337
 11
16.0404
 21
25.0084
  0
LINE
  8
0
 10
16.0404
 20
25.0084
 11
16.2259
 21
25
  0
LINE
  8
0
 10
16.2259
 20
25
 11
21.3999
 21
25
  0
LINE
  8
0
 10
21.3999
 20
25
 11
21.6228
 21
25.0084
  0
LINE
  8
0
 10
-71.8615
 20
35.717
 11
-71.8459
 21
36.0756
  0
LINE
  8
0
 10
-71.8459
 20
36.0756
 11
-71.799
 21
36.4002
  0
LINE
  8
0
 10
-71.799
 20
36.4002
 11
-71.7209
 21
36.6911
  0
LINE
  8
0
 10
-71.7209
 20
36.6911
 11
-71.6115
 21
36.948
  0
LINE
  8
0
 10
-71.6115
 20
36.948
 11
-71.4708
 21
37.1749
  0
LINE
  8
0
 10
-71.4708
 20
37.1749
 11
-71.2988
 21
37.3757
  0
LINE
  8
0
 10
-71.2988
 20
37.3757
 11
-71.0953
 21
37.5504
  0
LINE
  8
0
 10
-71.0953
 20
37.5504
 11
-70.8605
 21
37.699
  0
LINE
  8
0
 10
-70.8605
 20
37.699
 11
-70.6393
 21
37.8122
  0
LINE
  8
0
 10
-70.6393
 20
37.8122
 11
-70.5785
 21
37.845
  0
LINE
  8
0
 10
-70.5785
 20
37.845
 11
-70.5243
 21
37.8764
  0
LINE
  8
0
 10
-70.5243
 20
37.8764
 11
-70.4768
 21
37.9077
  0
LINE
  8
0
 10
-70.4768
 20
37.9077
 11
-70.4358
 21
37.9389
  0
LINE
  8
0
 10
-70.4358
 20
37.9389
 11
-70.4015
 21
37.97
  0
LINE
  8
0
 10
-70.4015
 20
37.97
 11
-70.3727
 21
38.0113
  0
LINE
  8
0
 10
-70.3727
 20
38.0113
 11
-70.3493
 21
38.0512
  0
LINE
  8
0
 10
-70.3493
 20
38.0512
 11
-70.3312
 21
38.0898
  0
LINE
  8
0
 10
-70.3312
 20
38.0898
 11
-70.3185
 21
38.127
  0
LINE
  8
0
 10
-70.3185
 20
38.127
 11
-70.3093
 21
38.1654
  0
LINE
  8
0
 10
-70.3093
 20
38.1654
 11
-70.3028
 21
38.2077
  0
LINE
  8
0
 10
-70.3028
 20
38.2077
 11
-70.2988
 21
38.2539
  0
LINE
  8
0
 10
-70.2988
 20
38.2539
 11
-70.2975
 21
38.304
  0
LINE
  8
0
 10
-70.2975
 20
38.304
 11
-70.3099
 21
38.4402
  0
LINE
  8
0
 10
-70.3099
 20
38.4402
 11
-70.347
 21
38.5567
  0
LINE
  8
0
 10
-70.347
 20
38.5567
 11
-70.4089
 21
38.6537
  0
LINE
  8
0
 10
-70.4089
 20
38.6537
 11
-70.4955
 21
38.731
  0
LINE
  8
0
 10
-70.4955
 20
38.731
 11
-70.6095
 21
38.7918
  0
LINE
  8
0
 10
-70.6095
 20
38.7918
 11
-70.7535
 21
38.8382
  0
LINE
  8
0
 10
-70.7535
 20
38.8382
 11
-70.9275
 21
38.8703
  0
LINE
  8
0
 10
-70.9275
 20
38.8703
 11
-71.1315
 21
38.888
  0
LINE
  8
0
 10
-71.1315
 20
38.888
 11
-73.6775
 21
38.867
  0
LINE
  8
0
 10
-73.6775
 20
38.867
 11
-73.8619
 21
38.8592
  0
LINE
  8
0
 10
-73.8619
 20
38.8592
 11
-74.019
 21
38.8357
  0
LINE
  8
0
 10
-74.019
 20
38.8357
 11
-74.1489
 21
38.7967
  0
LINE
  8
0
 10
-74.1489
 20
38.7967
 11
-74.2515
 21
38.742
  0
LINE
  8
0
 10
-74.2515
 20
38.742
 11
-74.329
 21
38.6704
  0
LINE
  8
0
 10
-74.329
 20
38.6704
 11
-74.3843
 21
38.5805
  0
LINE
  8
0
 10
-74.3843
 20
38.5805
 11
-74.4175
 21
38.4724
  0
LINE
  8
0
 10
-74.4175
 20
38.4724
 11
-74.4285
 21
38.346
  0
LINE
  8
0
 10
-74.4285
 20
38.346
 11
-74.4246
 21
38.2572
  0
LINE
  8
0
 10
-74.4246
 20
38.2572
 11
-74.4128
 21
38.179
  0
LINE
  8
0
 10
-74.4128
 20
38.179
 11
-74.3931
 21
38.1112
  0
LINE
  8
0
 10
-74.3931
 20
38.1112
 11
-74.3655
 21
38.054
  0
LINE
  8
0
 10
-74.3655
 20
38.054
 11
-74.3288
 21
38.0032
  0
LINE
  8
0
 10
-74.3288
 20
38.0032
 11
-74.2818
 21
37.955
  0
LINE
  8
0
 10
-74.2818
 20
37.955
 11
-74.2243
 21
37.9092
  0
LINE
  8
0
 10
-74.2243
 20
37.9092
 11
-74.1565
 21
37.866
  0
LINE
  8
0
 10
-74.1565
 20
37.866
 11
-74.1338
 21
37.8475
  0
LINE
  8
0
 10
-74.1338
 20
37.8475
 11
-74.0763
 21
37.8215
  0
LINE
  8
0
 10
-74.0763
 20
37.8215
 11
-74.0525
 21
37.804
  0
LINE
  8
0
 10
-74.0525
 20
37.804
 11
-73.763
 21
37.6384
  0
LINE
  8
0
 10
-73.763
 20
37.6384
 11
-73.5205
 21
37.4545
  0
LINE
  8
0
 10
-73.5205
 20
37.4545
 11
-73.325
 21
37.2524
  0
LINE
  8
0
 10
-73.325
 20
37.2524
 11
-73.1765
 21
37.032
  0
LINE
  8
0
 10
-73.1765
 20
37.032
 11
-73.0667
 21
36.779
  0
LINE
  8
0
 10
-73.0667
 20
36.779
 11
-72.9883
 21
36.479
  0
LINE
  8
0
 10
-72.9883
 20
36.479
 11
-72.9412
 21
36.132
  0
LINE
  8
0
 10
-72.9412
 20
36.132
 11
-72.9255
 21
35.738
  0
LINE
  8
0
 10
-72.9255
 20
35.738
 11
-72.9255
 21
32.922
  0
LINE
  8
0
 10
-72.9255
 20
32.922
 11
-71.8615
 21
31.107
  0
LINE
  8
0
 10
-71.8615
 20
31.107
 11
-71.8615
 21
35.717
  0
LINE
  8
0
 10
26.1222
 20
24.7362
 11
26.3814
 21
24.7578
  0
LINE
  8
0
 10
26.3814
 20
24.7578
 11
26.6262
 21
24.7937
  0
LINE
  8
0
 10
26.6262
 20
24.7937
 11
26.8569
 21
24.844
  0
LINE
  8
0
 10
26.8569
 20
24.844
 11
27.075
 21
24.907
  0
LINE
  8
0
 10
27.075
 20
24.907
 11
27.2814
 21
24.9818
  0
LINE
  8
0
 10
27.2814
 20
24.9818
 11
27.476
 21
25.0684
  0
LINE
  8
0
 10
27.476
 20
25.0684
 11
27.6589
 21
25.167
  0
LINE
  8
0
 10
27.6589
 20
25.167
 11
27.7917
 21
25.2631
  0
LINE
  8
0
 10
27.7917
 20
25.2631
 11
27.9194
 21
25.3645
  0
LINE
  8
0
 10
27.9194
 20
25.3645
 11
28.0417
 21
25.4711
  0
LINE
  8
0
 10
28.0417
 20
25.4711
 11
28.1589
 21
25.583
  0
LINE
  8
0
 10
28.1589
 20
25.583
 11
28.2712
 21
25.6988
  0
LINE
  8
0
 10
28.2712
 20
25.6988
 11
28.3784
 21
25.8172
  0
LINE
  8
0
 10
28.3784
 20
25.8172
 11
28.4802
 21
25.9383
  0
LINE
  8
0
 10
28.4802
 20
25.9383
 11
28.5769
 21
26.062
  0
LINE
  8
0
 10
28.5769
 20
26.062
 11
28.6558
 21
26.1765
  0
LINE
  8
0
 10
28.6558
 20
26.1765
 11
28.7256
 21
26.291
  0
LINE
  8
0
 10
28.7256
 20
26.291
 11
28.7863
 21
26.4055
  0
LINE
  8
0
 10
28.7863
 20
26.4055
 11
28.8379
 21
26.52
  0
LINE
  8
0
 10
28.8379
 20
26.52
 11
28.879
 21
26.6306
  0
LINE
  8
0
 10
28.879
 20
26.6306
 11
28.9084
 21
26.7335
  0
LINE
  8
0
 10
28.9084
 20
26.7335
 11
28.926
 21
26.8286
  0
LINE
  8
0
 10
28.926
 20
26.8286
 11
28.9319
 21
26.916
  0
LINE
  8
0
 10
28.9319
 20
26.916
 11
28.9319
 21
26.957
  0
LINE
  8
0
 10
28.9319
 20
26.957
 11
28.9305
 21
26.9688
  0
LINE
  8
0
 10
28.9305
 20
26.9688
 11
28.92
 21
27.0003
  0
LINE
  8
0
 10
28.92
 20
27.0003
 11
28.9109
 21
27.02
  0
LINE
  8
0
 10
28.9109
 20
27.02
 11
28.8945
 21
27.0818
  0
LINE
  8
0
 10
28.8945
 20
27.0818
 11
28.8663
 21
27.1422
  0
LINE
  8
0
 10
28.8663
 20
27.1422
 11
28.8265
 21
27.2013
  0
LINE
  8
0
 10
28.8265
 20
27.2013
 11
28.7749
 21
27.259
  0
LINE
  8
0
 10
28.7749
 20
27.259
 11
28.7167
 21
27.3132
  0
LINE
  8
0
 10
28.7167
 20
27.3132
 11
28.6573
 21
27.3607
  0
LINE
  8
0
 10
28.6573
 20
27.3607
 11
28.5967
 21
27.4017
  0
LINE
  8
0
 10
28.5967
 20
27.4017
 11
28.5349
 21
27.436
  0
LINE
  8
0
 10
28.5349
 20
27.436
 11
28.4961
 21
27.4385
  0
LINE
  8
0
 10
28.4961
 20
27.4385
 11
28.4619
 21
27.446
  0
LINE
  8
0
 10
28.4619
 20
27.446
 11
28.4333
 21
27.4542
  0
LINE
  8
0
 10
28.4333
 20
27.4542
 11
28.4099
 21
27.457
  0
LINE
  8
0
 10
28.4099
 20
27.457
 11
28.3788
 21
27.4557
  0
LINE
  8
0
 10
28.3788
 20
27.4557
 11
28.3476
 21
27.4517
  0
LINE
  8
0
 10
28.3476
 20
27.4517
 11
28.3163
 21
27.4452
  0
LINE
  8
0
 10
28.3163
 20
27.4452
 11
28.2849
 21
27.436
  0
LINE
  8
0
 10
28.2849
 20
27.436
 11
28.2534
 21
27.4242
  0
LINE
  8
0
 10
28.2534
 20
27.4242
 11
28.2221
 21
27.41
  0
LINE
  8
0
 10
28.2221
 20
27.41
 11
28.1909
 21
27.3932
  0
LINE
  8
0
 10
28.1909
 20
27.3932
 11
28.1599
 21
27.374
  0
LINE
  8
0
 10
28.1599
 20
27.374
 11
28.1192
 21
27.3517
  0
LINE
  8
0
 10
28.1192
 20
27.3517
 11
28.0811
 21
27.3267
  0
LINE
  8
0
 10
28.0811
 20
27.3267
 11
28.0457
 21
27.2992
  0
LINE
  8
0
 10
28.0457
 20
27.2992
 11
28.0129
 21
27.269
  0
LINE
  8
0
 10
28.0129
 20
27.269
 11
27.8889
 21
27.145
  0
LINE
  8
0
 10
27.8889
 20
27.145
 11
27.7839
 21
27.009
  0
LINE
  8
0
 10
27.7839
 20
27.009
 11
27.7629
 21
26.985
  0
LINE
  8
0
 10
27.7629
 20
26.985
 11
27.7421
 21
26.965
  0
LINE
  8
0
 10
27.7421
 20
26.965
 11
27.7214
 21
26.949
  0
LINE
  8
0
 10
27.7214
 20
26.949
 11
27.7009
 21
26.937
  0
LINE
  8
0
 10
27.7009
 20
26.937
 11
27.6799
 21
26.9342
  0
LINE
  8
0
 10
27.6799
 20
26.9342
 11
27.647
 21
26.9216
  0
LINE
  8
0
 10
27.647
 20
26.9216
 11
27.6155
 21
26.9166
  0
LINE
  8
0
 10
27.6155
 20
26.9166
 11
27.5959
 21
26.916
  0
LINE
  8
0
 10
27.5959
 20
26.916
 11
27.5471
 21
26.9212
  0
LINE
  8
0
 10
27.5471
 20
26.9212
 11
27.5049
 21
26.9367
  0
LINE
  8
0
 10
27.5049
 20
26.9367
 11
27.4691
 21
26.9627
  0
LINE
  8
0
 10
27.4691
 20
26.9627
 11
27.4398
 21
26.999
  0
LINE
  8
0
 10
27.4398
 20
26.999
 11
27.4171
 21
27.0457
  0
LINE
  8
0
 10
27.4171
 20
27.0457
 11
27.4008
 21
27.103
  0
LINE
  8
0
 10
27.4008
 20
27.103
 11
27.3911
 21
27.1707
  0
LINE
  8
0
 10
27.3911
 20
27.1707
 11
27.3879
 21
27.249
  0
LINE
  8
0
 10
27.3879
 20
27.249
 11
27.3879
 21
29.331
  0
LINE
  8
0
 10
27.3879
 20
29.331
 11
27.3696
 21
29.5975
  0
LINE
  8
0
 10
27.3696
 20
29.5975
 11
27.3148
 21
29.8562
  0
LINE
  8
0
 10
27.3148
 20
29.8562
 11
27.2236
 21
30.1071
  0
LINE
  8
0
 10
27.2236
 20
30.1071
 11
27.0959
 21
30.35
  0
LINE
  8
0
 10
27.0959
 20
30.35
 11
26.9361
 21
30.5791
  0
LINE
  8
0
 10
26.9361
 20
30.5791
 11
26.7476
 21
30.7875
  0
LINE
  8
0
 10
26.7476
 20
30.7875
 11
26.5305
 21
30.9751
  0
LINE
  8
0
 10
26.5305
 20
30.9751
 11
26.2849
 21
31.142
  0
LINE
  8
0
 10
26.2849
 20
31.142
 11
26.2429
 21
31.1655
  0
LINE
  8
0
 10
26.2429
 20
31.1655
 11
26.1596
 21
31.2225
  0
LINE
  8
0
 10
26.1596
 20
31.2225
 11
26.1179
 21
31.246
  0
LINE
  8
0
 10
26.1179
 20
31.246
 11
25.95
 21
31.3257
  0
LINE
  8
0
 10
25.95
 20
31.3257
 11
25.7796
 21
31.399
  0
LINE
  8
0
 10
25.7796
 20
31.399
 11
25.6065
 21
31.4657
  0
LINE
  8
0
 10
25.6065
 20
31.4657
 11
25.4309
 21
31.526
  0
LINE
  8
0
 10
25.4309
 20
31.526
 11
25.2383
 21
31.5828
  0
LINE
  8
0
 10
25.2383
 20
31.5828
 11
25.0146
 21
31.6382
  0
LINE
  8
0
 10
25.0146
 20
31.6382
 11
24.7598
 21
31.6923
  0
LINE
  8
0
 10
24.7598
 20
31.6923
 11
24.4739
 21
31.745
  0
LINE
  8
0
 10
24.4739
 20
31.745
 11
24.3906
 21
31.7475
  0
LINE
  8
0
 10
24.3906
 20
31.7475
 11
24.3069
 21
31.755
  0
LINE
  8
0
 10
24.3069
 20
31.755
 11
24.2239
 21
31.7685
  0
LINE
  8
0
 10
24.2239
 20
31.7685
 11
24.1409
 21
31.787
  0
LINE
  8
0
 10
24.1409
 20
31.787
 11
24.322
 21
31.8384
  0
LINE
  8
0
 10
24.322
 20
31.8384
 11
24.4916
 21
31.8885
  0
LINE
  8
0
 10
24.4916
 20
31.8885
 11
24.6495
 21
31.9374
  0
LINE
  8
0
 10
24.6495
 20
31.9374
 11
24.7959
 21
31.985
  0
LINE
  8
0
 10
24.7959
 20
31.985
 11
24.9331
 21
32.0326
  0
LINE
  8
0
 10
24.9331
 20
32.0326
 11
25.0639
 21
32.0815
  0
LINE
  8
0
 10
25.0639
 20
32.0815
 11
25.1881
 21
32.1316
  0
LINE
  8
0
 10
25.1881
 20
32.1316
 11
25.3059
 21
32.183
  0
LINE
  8
0
 10
25.3059
 20
32.183
 11
25.4571
 21
32.2454
  0
LINE
  8
0
 10
25.4571
 20
32.2454
 11
25.5979
 21
32.3077
  0
LINE
  8
0
 10
25.5979
 20
32.3077
 11
25.7281
 21
32.3699
  0
LINE
  8
0
 10
25.7281
 20
32.3699
 11
25.8479
 21
32.432
  0
LINE
  8
0
 10
25.8479
 20
32.432
 11
25.961
 21
32.4971
  0
LINE
  8
0
 10
25.961
 20
32.4971
 11
26.0716
 21
32.5675
  0
LINE
  8
0
 10
26.0716
 20
32.5675
 11
26.1796
 21
32.6431
  0
LINE
  8
0
 10
26.1796
 20
32.6431
 11
26.2849
 21
32.724
  0
LINE
  8
0
 10
26.2849
 20
32.724
 11
26.3259
 21
32.766
  0
LINE
  8
0
 10
26.3259
 20
32.766
 11
26.5812
 21
32.9909
  0
LINE
  8
0
 10
26.5812
 20
32.9909
 11
26.8051
 21
33.2497
  0
LINE
  8
0
 10
26.8051
 20
33.2497
 11
26.9977
 21
33.5424
  0
LINE
  8
0
 10
26.9977
 20
33.5424
 11
27.1589
 21
33.869
  0
LINE
  8
0
 10
27.1589
 20
33.869
 11
27.2862
 21
34.2177
  0
LINE
  8
0
 10
27.2862
 20
34.2177
 11
27.3771
 21
34.5767
  0
LINE
  8
0
 10
27.3771
 20
34.5767
 11
27.4317
 21
34.9462
  0
LINE
  8
0
 10
27.4317
 20
34.9462
 11
27.4499
 21
35.326
  0
LINE
  8
0
 10
27.4499
 20
35.326
 11
27.4245
 21
35.7821
  0
LINE
  8
0
 10
27.4245
 20
35.7821
 11
27.3484
 21
36.2135
  0
LINE
  8
0
 10
27.3484
 20
36.2135
 11
27.2215
 21
36.6201
  0
LINE
  8
0
 10
27.2215
 20
36.6201
 11
27.0439
 21
37.002
  0
LINE
  8
0
 10
27.0439
 20
37.002
 11
26.8159
 21
37.3539
  0
LINE
  8
0
 10
26.8159
 20
37.3539
 11
26.5371
 21
37.6707
  0
LINE
  8
0
 10
26.5371
 20
37.6707
 11
26.2074
 21
37.9524
  0
LINE
  8
0
 10
26.2074
 20
37.9524
 11
25.7614
 21
38.2407
  0
LINE
  8
0
 10
25.7614
 20
38.2407
 11
25.6909
 21
38.282
  0
LINE
  8
0
 10
25.6909
 20
38.282
 11
25.6541
 21
38.3017
  0
LINE
  8
0
 10
25.6541
 20
38.3017
 11
25.6159
 21
38.3187
  0
LINE
  8
0
 10
25.6159
 20
38.3187
 11
25.5761
 21
38.3332
  0
LINE
  8
0
 10
25.5761
 20
38.3332
 11
25.5349
 21
38.345
  0
LINE
  8
0
 10
25.5349
 20
38.345
 11
25.2353
 21
38.4884
  0
LINE
  8
0
 10
25.2353
 20
38.4884
 11
24.9186
 21
38.6057
  0
LINE
  8
0
 10
24.9186
 20
38.6057
 11
24.5848
 21
38.6969
  0
LINE
  8
0
 10
24.5848
 20
38.6969
 11
24.2339
 21
38.762
  0
LINE
  8
0
 10
24.2339
 20
38.762
 11
23.8313
 21
38.8092
  0
LINE
  8
0
 10
23.8313
 20
38.8092
 11
23.3416
 21
38.846
  0
LINE
  8
0
 10
23.3416
 20
38.846
 11
22.7648
 21
38.8722
  0
LINE
  8
0
 10
22.7648
 20
38.8722
 11
22.1009
 21
38.888
  0
LINE
  8
0
 10
22.1009
 20
38.888
 11
21.8509
 21
38.888
  0
LINE
  8
0
 10
21.8509
 20
38.888
 11
21.8509
 21
37.748
  0
LINE
  8
0
 10
21.8509
 20
37.748
 11
22.1574
 21
37.6386
  0
LINE
  8
0
 10
22.1574
 20
37.6386
 11
22.4091
 21
37.5175
  0
LINE
  8
0
 10
22.4091
 20
37.5175
 11
22.6059
 21
37.3846
  0
LINE
  8
0
 10
22.6059
 20
37.3846
 11
22.7478
 21
37.24
  0
LINE
  8
0
 10
22.7478
 20
37.24
 11
22.8485
 21
37.0699
  0
LINE
  8
0
 10
22.8485
 20
37.0699
 11
22.9203
 21
36.8595
  0
LINE
  8
0
 10
22.9203
 20
36.8595
 11
22.9635
 21
36.6089
  0
LINE
  8
0
 10
22.9635
 20
36.6089
 11
22.9779
 21
36.318
  0
LINE
  8
0
 10
22.9779
 20
36.318
 11
22.9779
 21
33.623
  0
LINE
  8
0
 10
22.9779
 20
33.623
 11
22.9622
 21
33.3043
  0
LINE
  8
0
 10
22.9622
 20
33.3043
 11
22.9151
 21
33.0322
  0
LINE
  8
0
 10
22.9151
 20
33.0322
 11
22.8367
 21
32.8068
  0
LINE
  8
0
 10
22.8367
 20
32.8068
 11
22.7269
 21
32.628
  0
LINE
  8
0
 10
22.7269
 20
32.628
 11
22.5784
 21
32.4881
  0
LINE
  8
0
 10
22.5784
 20
32.4881
 11
22.3829
 21
32.3792
  0
LINE
  8
0
 10
22.3829
 20
32.3792
 11
22.1404
 21
32.3016
  0
LINE
  8
0
 10
22.1404
 20
32.3016
 11
21.8509
 21
32.255
  0
LINE
  8
0
 10
21.8509
 20
32.255
 11
21.8509
 21
31.144
  0
LINE
  8
0
 10
21.8509
 20
31.144
 11
22.1319
 21
31.0902
  0
LINE
  8
0
 10
22.1319
 20
31.0902
 11
22.3699
 21
30.992
  0
LINE
  8
0
 10
22.3699
 20
30.992
 11
22.5648
 21
30.8492
  0
LINE
  8
0
 10
22.5648
 20
30.8492
 11
22.7169
 21
30.662
  0
LINE
  8
0
 10
22.7169
 20
30.662
 11
22.831
 21
30.4249
  0
LINE
  8
0
 10
22.831
 20
30.4249
 11
22.9126
 21
30.1327
  0
LINE
  8
0
 10
22.9126
 20
30.1327
 11
22.9615
 21
29.7854
  0
LINE
  8
0
 10
22.9615
 20
29.7854
 11
22.9779
 21
29.383
  0
LINE
  8
0
 10
22.9779
 20
29.383
 11
22.9779
 21
27.643
  0
LINE
  8
0
 10
22.9779
 20
27.643
 11
23.0253
 21
26.9897
  0
LINE
  8
0
 10
23.0253
 20
26.9897
 11
23.1676
 21
26.4137
  0
LINE
  8
0
 10
23.1676
 20
26.4137
 11
23.4048
 21
25.9152
  0
LINE
  8
0
 10
23.4048
 20
25.9152
 11
23.7369
 21
25.494
  0
LINE
  8
0
 10
23.7369
 20
25.494
 11
24.1539
 21
25.1593
  0
LINE
  8
0
 10
24.1539
 20
25.1593
 11
24.6449
 21
24.9203
  0
LINE
  8
0
 10
24.6449
 20
24.9203
 11
25.2099
 21
24.7768
  0
LINE
  8
0
 10
25.2099
 20
24.7768
 11
25.8489
 21
24.729
  0
LINE
  8
0
 10
25.8489
 20
24.729
 11
26.1222
 21
24.7362
  0
LINE
  8
0
 10
12.7538
 20
34.6411
 11
12.8601
 21
34.6685
  0
LINE
  8
0
 10
12.8601
 20
34.6685
 11
12.9469
 21
34.7141
  0
LINE
  8
0
 10
12.9469
 20
34.7141
 11
13.0141
 21
34.778
  0
LINE
  8
0
 10
13.0141
 20
34.778
 11
13.0644
 21
34.8627
  0
LINE
  8
0
 10
13.0644
 20
34.8627
 11
13.1003
 21
34.971
  0
LINE
  8
0
 10
13.1003
 20
34.971
 11
13.1219
 21
35.1027
  0
LINE
  8
0
 10
13.1219
 20
35.1027
 11
13.1291
 21
35.258
  0
LINE
  8
0
 10
13.1291
 20
35.258
 11
13.1291
 21
38.888
  0
LINE
  8
0
 10
13.1291
 20
38.888
 11
8.99809
 21
38.888
  0
LINE
  8
0
 10
8.99809
 20
38.888
 11
8.99809
 21
37.657
  0
LINE
  8
0
 10
8.99809
 20
37.657
 11
9.56522
 21
37.5638
  0
LINE
  8
0
 10
9.56522
 20
37.5638
 11
10.0776
 21
37.4092
  0
LINE
  8
0
 10
10.0776
 20
37.4092
 11
10.5352
 21
37.1933
  0
LINE
  8
0
 10
10.5352
 20
37.1933
 11
10.9381
 21
36.916
  0
LINE
  8
0
 10
10.9381
 20
36.916
 11
11.2914
 21
36.5713
  0
LINE
  8
0
 10
11.2914
 20
36.5713
 11
11.6003
 21
36.1522
  0
LINE
  8
0
 10
11.6003
 20
36.1522
 11
11.8649
 21
35.6588
  0
LINE
  8
0
 10
11.8649
 20
35.6588
 11
12.0851
 21
35.091
  0
LINE
  8
0
 10
12.0851
 20
35.091
 11
12.0876
 21
35.0675
  0
LINE
  8
0
 10
12.0876
 20
35.0675
 11
12.0951
 21
35.039
  0
LINE
  8
0
 10
12.0951
 20
35.039
 11
12.1086
 21
35.0105
  0
LINE
  8
0
 10
12.1086
 20
35.0105
 11
12.1271
 21
34.987
  0
LINE
  8
0
 10
12.1271
 20
34.987
 11
12.1703
 21
34.891
  0
LINE
  8
0
 10
12.1703
 20
34.891
 11
12.2161
 21
34.812
  0
LINE
  8
0
 10
12.2161
 20
34.812
 11
12.2643
 21
34.75
  0
LINE
  8
0
 10
12.2643
 20
34.75
 11
12.3151
 21
34.705
  0
LINE
  8
0
 10
12.3151
 20
34.705
 11
12.3737
 21
34.673
  0
LINE
  8
0
 10
12.3737
 20
34.673
 11
12.4453
 21
34.6502
  0
LINE
  8
0
 10
12.4453
 20
34.6502
 11
12.5302
 21
34.6366
  0
LINE
  8
0
 10
12.5302
 20
34.6366
 11
12.6281
 21
34.632
  0
LINE
  8
0
 10
12.6281
 20
34.632
 11
12.7538
 21
34.6411
  0
LINE
  8
0
 10
71.9752
 20
25.0084
 11
72.1662
 21
25.0337
  0
LINE
  8
0
 10
72.1662
 20
25.0337
 11
72.3247
 21
25.0759
  0
LINE
  8
0
 10
72.3247
 20
25.0759
 11
72.4505
 21
25.135
  0
LINE
  8
0
 10
72.4505
 20
25.135
 11
72.5463
 21
25.2127
  0
LINE
  8
0
 10
72.5463
 20
25.2127
 11
72.6147
 21
25.31
  0
LINE
  8
0
 10
72.6147
 20
25.31
 11
72.6558
 21
25.4267
  0
LINE
  8
0
 10
72.6558
 20
25.4267
 11
72.6695
 21
25.563
  0
LINE
  8
0
 10
72.6695
 20
25.563
 11
72.661
 21
25.6629
  0
LINE
  8
0
 10
72.661
 20
25.6629
 11
72.6355
 21
25.7535
  0
LINE
  8
0
 10
72.6355
 20
25.7535
 11
72.593
 21
25.8349
  0
LINE
  8
0
 10
72.593
 20
25.8349
 11
72.5335
 21
25.907
  0
LINE
  8
0
 10
72.5335
 20
25.907
 11
72.4601
 21
25.9691
  0
LINE
  8
0
 10
72.4601
 20
25.9691
 11
72.375
 21
26.0195
  0
LINE
  8
0
 10
72.375
 20
26.0195
 11
72.2781
 21
26.0581
  0
LINE
  8
0
 10
72.2781
 20
26.0581
 11
72.1695
 21
26.085
  0
LINE
  8
0
 10
72.1695
 20
26.085
 11
72.0812
 21
26.1103
  0
LINE
  8
0
 10
72.0812
 20
26.1103
 11
71.9997
 21
26.1292
  0
LINE
  8
0
 10
71.9997
 20
26.1292
 11
71.9395
 21
26.147
  0
LINE
  8
0
 10
71.9395
 20
26.147
 11
71.7787
 21
26.202
  0
LINE
  8
0
 10
71.7787
 20
26.202
 11
71.6505
 21
26.262
  0
LINE
  8
0
 10
71.6505
 20
26.262
 11
71.5547
 21
26.327
  0
LINE
  8
0
 10
71.5547
 20
26.327
 11
71.4915
 21
26.397
  0
LINE
  8
0
 10
71.4915
 20
26.397
 11
71.4503
 21
26.4856
  0
LINE
  8
0
 10
71.4503
 20
26.4856
 11
71.421
 21
26.6055
  0
LINE
  8
0
 10
71.421
 20
26.6055
 11
71.4034
 21
26.7566
  0
LINE
  8
0
 10
71.4034
 20
26.7566
 11
71.3975
 21
26.939
  0
LINE
  8
0
 10
71.3975
 20
26.939
 11
71.3975
 21
38.888
  0
LINE
  8
0
 10
71.3975
 20
38.888
 11
66.8715
 21
38.888
  0
LINE
  8
0
 10
66.8715
 20
38.888
 11
66.8715
 21
26.918
  0
LINE
  8
0
 10
66.8715
 20
26.918
 11
66.8663
 21
26.7448
  0
LINE
  8
0
 10
66.8663
 20
26.7448
 11
66.8507
 21
26.6002
  0
LINE
  8
0
 10
66.8507
 20
26.6002
 11
66.8248
 21
26.4843
  0
LINE
  8
0
 10
66.8248
 20
26.4843
 11
66.7885
 21
26.397
  0
LINE
  8
0
 10
66.7885
 20
26.397
 11
66.73
 21
26.327
  0
LINE
  8
0
 10
66.73
 20
26.327
 11
66.6375
 21
26.262
  0
LINE
  8
0
 10
66.6375
 20
26.262
 11
66.511
 21
26.202
  0
LINE
  8
0
 10
66.511
 20
26.202
 11
66.3505
 21
26.147
  0
LINE
  8
0
 10
66.3505
 20
26.147
 11
66.3032
 21
26.1292
  0
LINE
  8
0
 10
66.3032
 20
26.1292
 11
66.2455
 21
26.116
  0
LINE
  8
0
 10
66.2455
 20
26.116
 11
66.1401
 21
26.0948
  0
LINE
  8
0
 10
66.1401
 20
26.0948
 11
65.9915
 21
26.0581
  0
LINE
  8
0
 10
65.9915
 20
26.0581
 11
65.8965
 21
26.0195
  0
LINE
  8
0
 10
65.8965
 20
26.0195
 11
65.8145
 21
25.9691
  0
LINE
  8
0
 10
65.8145
 20
25.9691
 11
65.7455
 21
25.907
  0
LINE
  8
0
 10
65.7455
 20
25.907
 11
65.6908
 21
25.8349
  0
LINE
  8
0
 10
65.6908
 20
25.8349
 11
65.6517
 21
25.7535
  0
LINE
  8
0
 10
65.6517
 20
25.7535
 11
65.6283
 21
25.6629
  0
LINE
  8
0
 10
65.6283
 20
25.6629
 11
65.6205
 21
25.563
  0
LINE
  8
0
 10
65.6205
 20
25.563
 11
65.6342
 21
25.4267
  0
LINE
  8
0
 10
65.6342
 20
25.4267
 11
65.6752
 21
25.31
  0
LINE
  8
0
 10
65.6752
 20
25.31
 11
65.7437
 21
25.2127
  0
LINE
  8
0
 10
65.7437
 20
25.2127
 11
65.8395
 21
25.135
  0
LINE
  8
0
 10
65.8395
 20
25.135
 11
65.964
 21
25.0759
  0
LINE
  8
0
 10
65.964
 20
25.0759
 11
66.1185
 21
25.0337
  0
LINE
  8
0
 10
66.1185
 20
25.0337
 11
66.303
 21
25.0084
  0
LINE
  8
0
 10
66.303
 20
25.0084
 11
66.5175
 21
25
  0
LINE
  8
0
 10
66.5175
 20
25
 11
71.7515
 21
25
  0
LINE
  8
0
 10
71.7515
 20
25
 11
71.9752
 21
25.0084
  0
LINE
  8
0
 10
64.1342
 20
33.9954
 11
64.2452
 21
34.0267
  0
LINE
  8
0
 10
64.2452
 20
34.0267
 11
64.3457
 21
34.0789
  0
LINE
  8
0
 10
64.3457
 20
34.0789
 11
64.4355
 21
34.152
  0
LINE
  8
0
 10
64.4355
 20
34.152
 11
64.512
 21
34.2459
  0
LINE
  8
0
 10
64.512
 20
34.2459
 11
64.5727
 21
34.3607
  0
LINE
  8
0
 10
64.5727
 20
34.3607
 11
64.6175
 21
34.4964
  0
LINE
  8
0
 10
64.6175
 20
34.4964
 11
64.6465
 21
34.653
  0
LINE
  8
0
 10
64.6465
 20
34.653
 11
64.7465
 21
35.258
  0
LINE
  8
0
 10
64.7465
 20
35.258
 11
64.8353
 21
35.6784
  0
LINE
  8
0
 10
64.8353
 20
35.6784
 11
64.943
 21
36.0635
  0
LINE
  8
0
 10
64.943
 20
36.0635
 11
65.0694
 21
36.4134
  0
LINE
  8
0
 10
65.0694
 20
36.4134
 11
65.2145
 21
36.728
  0
LINE
  8
0
 10
65.2145
 20
36.728
 11
65.3808
 21
37.0079
  0
LINE
  8
0
 10
65.3808
 20
37.0079
 11
65.5707
 21
37.2525
  0
LINE
  8
0
 10
65.5707
 20
37.2525
 11
65.7843
 21
37.4619
  0
LINE
  8
0
 10
65.7843
 20
37.4619
 11
66.0215
 21
37.636
  0
LINE
  8
0
 10
66.0215
 20
37.636
 11
66.0215
 21
38.888
  0
LINE
  8
0
 10
66.0215
 20
38.888
 11
63.3995
 21
38.888
  0
LINE
  8
0
 10
63.3995
 20
38.888
 11
63.3995
 21
34.653
  0
LINE
  8
0
 10
63.3995
 20
34.653
 11
63.41
 21
34.5135
  0
LINE
  8
0
 10
63.41
 20
34.5135
 11
63.4417
 21
34.387
  0
LINE
  8
0
 10
63.4417
 20
34.387
 11
63.4945
 21
34.2735
  0
LINE
  8
0
 10
63.4945
 20
34.2735
 11
63.5685
 21
34.173
  0
LINE
  8
0
 10
63.5685
 20
34.173
 11
63.6596
 21
34.0907
  0
LINE
  8
0
 10
63.6596
 20
34.0907
 11
63.764
 21
34.032
  0
LINE
  8
0
 10
63.764
 20
34.032
 11
63.8816
 21
33.9967
  0
LINE
  8
0
 10
63.8816
 20
33.9967
 11
64.0125
 21
33.985
  0
LINE
  8
0
 10
64.0125
 20
33.985
 11
64.1342
 21
33.9954
  0
LINE
  8
0
 10
8.1281
 20
38.888
 11
3.58009
 21
38.888
  0
LINE
  8
0
 10
3.58009
 20
38.888
 11
3.3091
 21
38.867
  0
LINE
  8
0
 10
3.3091
 20
38.867
 11
3.13222
 21
38.8585
  0
LINE
  8
0
 10
3.13222
 20
38.8585
 11
2.9776
 21
38.833
  0
LINE
  8
0
 10
2.9776
 20
38.833
 11
2.84523
 21
38.7905
  0
LINE
  8
0
 10
2.84523
 20
38.7905
 11
2.73509
 21
38.731
  0
LINE
  8
0
 10
2.73509
 20
38.731
 11
2.64847
 21
38.6537
  0
LINE
  8
0
 10
2.64847
 20
38.6537
 11
2.58659
 21
38.5567
  0
LINE
  8
0
 10
2.58659
 20
38.5567
 11
2.54947
 21
38.4402
  0
LINE
  8
0
 10
2.54947
 20
38.4402
 11
2.53709
 21
38.304
  0
LINE
  8
0
 10
2.53709
 20
38.304
 11
2.54359
 21
38.2137
  0
LINE
  8
0
 10
2.54359
 20
38.2137
 11
2.5631
 21
38.1297
  0
LINE
  8
0
 10
2.5631
 20
38.1297
 11
2.5956
 21
38.0522
  0
LINE
  8
0
 10
2.5956
 20
38.0522
 11
2.6411
 21
37.981
  0
LINE
  8
0
 10
2.6411
 20
37.981
 11
2.69966
 21
37.9181
  0
LINE
  8
0
 10
2.69966
 20
37.9181
 11
2.77135
 21
37.8642
  0
LINE
  8
0
 10
2.77135
 20
37.8642
 11
2.85616
 21
37.8195
  0
LINE
  8
0
 10
2.85616
 20
37.8195
 11
2.9541
 21
37.784
  0
LINE
  8
0
 10
2.9541
 20
37.784
 11
3.03459
 21
37.7602
  0
LINE
  8
0
 10
3.03459
 20
37.7602
 11
3.21397
 21
37.6907
  0
LINE
  8
0
 10
3.21397
 20
37.6907
 11
3.24609
 21
37.68
  0
LINE
  8
0
 10
3.24609
 20
37.68
 11
3.34953
 21
37.6262
  0
LINE
  8
0
 10
3.34953
 20
37.6262
 11
3.43085
 21
37.57
  0
LINE
  8
0
 10
3.43085
 20
37.57
 11
3.49004
 21
37.5112
  0
LINE
  8
0
 10
3.49004
 20
37.5112
 11
3.5271
 21
37.45
  0
LINE
  8
0
 10
3.5271
 20
37.45
 11
3.55029
 21
37.3775
  0
LINE
  8
0
 10
3.55029
 20
37.3775
 11
3.56685
 21
37.284
  0
LINE
  8
0
 10
3.56685
 20
37.284
 11
3.57678
 21
37.1695
  0
LINE
  8
0
 10
3.57678
 20
37.1695
 11
3.58009
 21
37.034
  0
LINE
  8
0
 10
3.58009
 20
37.034
 11
3.58009
 21
26.834
  0
LINE
  8
0
 10
3.58009
 20
26.834
 11
3.57678
 21
26.6897
  0
LINE
  8
0
 10
3.57678
 20
26.6897
 11
3.56685
 21
26.5687
  0
LINE
  8
0
 10
3.56685
 20
26.5687
 11
3.55029
 21
26.4712
  0
LINE
  8
0
 10
3.55029
 20
26.4712
 11
3.5271
 21
26.397
  0
LINE
  8
0
 10
3.5271
 20
26.397
 11
3.49004
 21
26.3358
  0
LINE
  8
0
 10
3.49004
 20
26.3358
 11
3.43085
 21
26.2772
  0
LINE
  8
0
 10
3.43085
 20
26.2772
 11
3.34953
 21
26.2213
  0
LINE
  8
0
 10
3.34953
 20
26.2213
 11
3.24609
 21
26.168
  0
LINE
  8
0
 10
3.24609
 20
26.168
 11
3.14597
 21
26.1309
  0
LINE
  8
0
 10
3.14597
 20
26.1309
 11
3.07297
 21
26.1011
  0
LINE
  8
0
 10
3.07297
 20
26.1011
 11
2.99498
 21
26.0751
  0
LINE
  8
0
 10
2.99498
 20
26.0751
 11
2.9541
 21
26.064
  0
LINE
  8
0
 10
2.9541
 20
26.064
 11
2.85616
 21
26.0279
  0
LINE
  8
0
 10
2.85616
 20
26.0279
 11
2.77135
 21
25.9827
  0
LINE
  8
0
 10
2.77135
 20
25.9827
 11
2.69966
 21
25.9284
  0
LINE
  8
0
 10
2.69966
 20
25.9284
 11
2.6411
 21
25.865
  0
LINE
  8
0
 10
2.6411
 20
25.865
 11
2.5956
 21
25.7942
  0
LINE
  8
0
 10
2.5956
 20
25.7942
 11
2.5631
 21
25.7167
  0
LINE
  8
0
 10
2.5631
 20
25.7167
 11
2.54359
 21
25.6327
  0
LINE
  8
0
 10
2.54359
 20
25.6327
 11
2.53709
 21
25.542
  0
LINE
  8
0
 10
2.53709
 20
25.542
 11
2.54878
 21
25.4149
  0
LINE
  8
0
 10
2.54878
 20
25.4149
 11
2.58385
 21
25.3047
  0
LINE
  8
0
 10
2.58385
 20
25.3047
 11
2.64229
 21
25.2114
  0
LINE
  8
0
 10
2.64229
 20
25.2114
 11
2.72409
 21
25.135
  0
LINE
  8
0
 10
2.72409
 20
25.135
 11
2.83116
 21
25.0759
  0
LINE
  8
0
 10
2.83116
 20
25.0759
 11
2.96436
 21
25.0337
  0
LINE
  8
0
 10
2.96436
 20
25.0337
 11
3.12366
 21
25.0084
  0
LINE
  8
0
 10
3.12366
 20
25.0084
 11
3.3091
 21
25
  0
LINE
  8
0
 10
3.3091
 20
25
 11
8.1281
 21
25
  0
LINE
  8
0
 10
8.1281
 20
25
 11
8.1281
 21
38.888
  0
LINE
  8
0
 10
74.444
 20
34.0167
 11
74.5577
 21
34.052
  0
LINE
  8
0
 10
74.5577
 20
34.052
 11
74.6585
 21
34.1107
  0
LINE
  8
0
 10
74.6585
 20
34.1107
 11
74.7465
 21
34.193
  0
LINE
  8
0
 10
74.7465
 20
34.193
 11
74.8182
 21
34.2948
  0
LINE
  8
0
 10
74.8182
 20
34.2948
 11
74.8695
 21
34.4122
  0
LINE
  8
0
 10
74.8695
 20
34.4122
 11
74.9002
 21
34.5453
  0
LINE
  8
0
 10
74.9002
 20
34.5453
 11
74.9105
 21
34.694
  0
LINE
  8
0
 10
74.9105
 20
34.694
 11
74.9105
 21
38.888
  0
LINE
  8
0
 10
74.9105
 20
38.888
 11
72.2245
 21
38.888
  0
LINE
  8
0
 10
72.2245
 20
38.888
 11
72.2245
 21
37.636
  0
LINE
  8
0
 10
72.2245
 20
37.636
 11
72.4798
 21
37.4706
  0
LINE
  8
0
 10
72.4798
 20
37.4706
 11
72.7097
 21
37.2675
  0
LINE
  8
0
 10
72.7097
 20
37.2675
 11
72.9143
 21
37.0266
  0
LINE
  8
0
 10
72.9143
 20
37.0266
 11
73.0935
 21
36.748
  0
LINE
  8
0
 10
73.0935
 20
36.748
 11
73.2485
 21
36.4347
  0
LINE
  8
0
 10
73.2485
 20
36.4347
 11
73.3807
 21
36.0887
  0
LINE
  8
0
 10
73.3807
 20
36.0887
 11
73.49
 21
35.7102
  0
LINE
  8
0
 10
73.49
 20
35.7102
 11
73.5765
 21
35.299
  0
LINE
  8
0
 10
73.5765
 20
35.299
 11
73.6835
 21
34.652
  0
LINE
  8
0
 10
73.6835
 20
34.652
 11
73.7204
 21
34.5131
  0
LINE
  8
0
 10
73.7204
 20
34.5131
 11
73.7702
 21
34.3885
  0
LINE
  8
0
 10
73.7702
 20
34.3885
 11
73.8329
 21
34.2781
  0
LINE
  8
0
 10
73.8329
 20
34.2781
 11
73.9085
 21
34.182
  0
LINE
  8
0
 10
73.9085
 20
34.182
 11
73.9955
 21
34.1046
  0
LINE
  8
0
 10
73.9955
 20
34.1046
 11
74.0927
 21
34.0492
  0
LINE
  8
0
 10
74.0927
 20
34.0492
 11
74.2
 21
34.0161
  0
LINE
  8
0
 10
74.2
 20
34.0161
 11
74.3175
 21
34.005
  0
LINE
  8
0
 10
74.3175
 20
34.005
 11
74.444
 21
34.0167
  0
LINE
  8
0
 10
-71.8615
 20
29.48
 11
-77.2765
 21
38.888
  0
LINE
  8
0
 10
-77.2765
 20
38.888
 11
-81.9029
 21
38.8663
  0
LINE
  8
0
 10
-81.9029
 20
38.8663
 11
-82.1849
 21
38.8608
  0
LINE
  8
0
 10
-82.1849
 20
38.8608
 11
-82.2985
 21
38.856
  0
LINE
  8
0
 10
-82.2985
 20
38.856
 11
-82.396
 21
38.8491
  0
LINE
  8
0
 10
-82.396
 20
38.8491
 11
-82.4805
 21
38.8382
  0
LINE
  8
0
 10
-82.4805
 20
38.8382
 11
-82.552
 21
38.8235
  0
LINE
  8
0
 10
-82.552
 20
38.8235
 11
-82.6105
 21
38.805
  0
LINE
  8
0
 10
-82.6105
 20
38.805
 11
-82.6816
 21
38.7768
  0
LINE
  8
0
 10
-82.6816
 20
38.7768
 11
-82.7488
 21
38.7342
  0
LINE
  8
0
 10
-82.7488
 20
38.7342
 11
-82.8121
 21
38.6773
  0
LINE
  8
0
 10
-82.8121
 20
38.6773
 11
-82.8715
 21
38.606
  0
LINE
  8
0
 10
-82.8715
 20
38.606
 11
-82.9218
 21
38.526
  0
LINE
  8
0
 10
-82.9218
 20
38.526
 11
-82.9578
 21
38.442
  0
LINE
  8
0
 10
-82.9578
 20
38.442
 11
-82.9793
 21
38.354
  0
LINE
  8
0
 10
-82.9793
 20
38.354
 11
-82.9865
 21
38.262
  0
LINE
  8
0
 10
-82.9865
 20
38.262
 11
-82.9807
 21
38.1804
  0
LINE
  8
0
 10
-82.9807
 20
38.1804
 11
-82.963
 21
38.1027
  0
LINE
  8
0
 10
-82.963
 20
38.1027
 11
-82.9337
 21
38.0289
  0
LINE
  8
0
 10
-82.9337
 20
38.0289
 11
-82.8925
 21
37.959
  0
LINE
  8
0
 10
-82.8925
 20
37.959
 11
-82.8423
 21
37.8986
  0
LINE
  8
0
 10
-82.8423
 20
37.8986
 11
-82.7855
 21
37.8525
  0
LINE
  8
0
 10
-82.7855
 20
37.8525
 11
-82.7223
 21
37.8206
  0
LINE
  8
0
 10
-82.7223
 20
37.8206
 11
-82.6525
 21
37.803
  0
LINE
  8
0
 10
-82.6525
 20
37.803
 11
-82.2765
 21
37.64
  0
LINE
  8
0
 10
-82.2765
 20
37.64
 11
-82.1778
 21
37.599
  0
LINE
  8
0
 10
-82.1778
 20
37.599
 11
-82.0895
 21
37.558
  0
LINE
  8
0
 10
-82.0895
 20
37.558
 11
-82.0476
 21
37.5349
  0
LINE
  8
0
 10
-82.0476
 20
37.5349
 11
-82.0058
 21
37.5067
  0
LINE
  8
0
 10
-82.0058
 20
37.5067
 11
-81.9641
 21
37.4734
  0
LINE
  8
0
 10
-81.9641
 20
37.4734
 11
-81.9225
 21
37.435
  0
LINE
  8
0
 10
-81.9225
 20
37.435
 11
-81.8799
 21
37.3912
  0
LINE
  8
0
 10
-81.8799
 20
37.3912
 11
-81.836
 21
37.341
  0
LINE
  8
0
 10
-81.836
 20
37.341
 11
-81.7909
 21
37.2842
  0
LINE
  8
0
 10
-81.7909
 20
37.2842
 11
-81.6428
 21
37.0752
  0
LINE
  8
0
 10
-81.6428
 20
37.0752
 11
-81.5255
 21
36.904
  0
LINE
  8
0
 10
-81.5255
 20
36.904
 11
-74.6315
 21
25
  0
LINE
  8
0
 10
-74.6315
 20
25
 11
-71.8615
 21
25
  0
LINE
  8
0
 10
-71.8615
 20
25
 11
-71.8615
 21
29.48
  0
LINE
  8
0
 10
-11.9605
 20
25.0078
 11
-11.7993
 21
25.0312
  0
LINE
  8
0
 10
-11.7993
 20
25.0312
 11
-11.663
 21
25.0703
  0
LINE
  8
0
 10
-11.663
 20
25.0703
 11
-11.5515
 21
25.125
  0
LINE
  8
0
 10
-11.5515
 20
25.125
 11
-11.4649
 21
25.1941
  0
LINE
  8
0
 10
-11.4649
 20
25.1941
 11
-11.403
 21
25.2762
  0
LINE
  8
0
 10
-11.403
 20
25.2762
 11
-11.3659
 21
25.3716
  0
LINE
  8
0
 10
-11.3659
 20
25.3716
 11
-11.3535
 21
25.48
  0
LINE
  8
0
 10
-11.3535
 20
25.48
 11
-11.3581
 21
25.5689
  0
LINE
  8
0
 10
-11.3581
 20
25.5689
 11
-11.3718
 21
25.6487
  0
LINE
  8
0
 10
-11.3718
 20
25.6487
 11
-11.3946
 21
25.7194
  0
LINE
  8
0
 10
-11.3946
 20
25.7194
 11
-11.4265
 21
25.781
  0
LINE
  8
0
 10
-11.4265
 20
25.781
 11
-11.4715
 21
25.8378
  0
LINE
  8
0
 10
-11.4715
 20
25.8378
 11
-11.5333
 21
25.8932
  0
LINE
  8
0
 10
-11.5333
 20
25.8932
 11
-11.612
 21
25.9473
  0
LINE
  8
0
 10
-11.612
 20
25.9473
 11
-11.7075
 21
26
  0
LINE
  8
0
 10
-11.7075
 20
26
 11
-11.7313
 21
26.0025
  0
LINE
  8
0
 10
-11.7313
 20
26.0025
 11
-11.7605
 21
26.01
  0
LINE
  8
0
 10
-11.7605
 20
26.01
 11
-11.789
 21
26.0235
  0
LINE
  8
0
 10
-11.789
 20
26.0235
 11
-11.8125
 21
26.042
  0
LINE
  8
0
 10
-11.8125
 20
26.042
 11
-11.9199
 21
26.0867
  0
LINE
  8
0
 10
-11.9199
 20
26.0867
 11
-12.013
 21
26.138
  0
LINE
  8
0
 10
-12.013
 20
26.138
 11
-12.0919
 21
26.1957
  0
LINE
  8
0
 10
-12.0919
 20
26.1957
 11
-12.1565
 21
26.26
  0
LINE
  8
0
 10
-12.1565
 20
26.26
 11
-12.2116
 21
26.3377
  0
LINE
  8
0
 10
-12.2116
 20
26.3377
 11
-12.2628
 21
26.435
  0
LINE
  8
0
 10
-12.2628
 20
26.435
 11
-12.3101
 21
26.5517
  0
LINE
  8
0
 10
-12.3101
 20
26.5517
 11
-12.372
 21
26.7475
  0
LINE
  8
0
 10
-12.372
 20
26.7475
 11
-15.2295
 21
38.888
  0
LINE
  8
0
 10
-15.2295
 20
38.888
 11
-19.3355
 21
38.888
  0
LINE
  8
0
 10
-19.3355
 20
38.888
 11
-19.5855
 21
37.887
  0
LINE
  8
0
 10
-19.5855
 20
37.887
 11
-17.7105
 21
29.644
  0
LINE
  8
0
 10
-17.7105
 20
29.644
 11
-20.0025
 21
29.644
  0
LINE
  8
0
 10
-20.0025
 20
29.644
 11
-20.2735
 21
28.392
  0
LINE
  8
0
 10
-20.2735
 20
28.392
 11
-17.4455
 21
28.392
  0
LINE
  8
0
 10
-17.4455
 20
28.392
 11
-17.1125
 21
26.926
  0
LINE
  8
0
 10
-17.1125
 20
26.926
 11
-17.0915
 21
26.637
  0
LINE
  8
0
 10
-17.0915
 20
26.637
 11
-17.0955
 21
26.5485
  0
LINE
  8
0
 10
-17.0955
 20
26.5485
 11
-17.1073
 21
26.469
  0
LINE
  8
0
 10
-17.1073
 20
26.469
 11
-17.127
 21
26.3985
  0
LINE
  8
0
 10
-17.127
 20
26.3985
 11
-17.1545
 21
26.337
  0
LINE
  8
0
 10
-17.1545
 20
26.337
 11
-17.1908
 21
26.2811
  0
LINE
  8
0
 10
-17.1908
 20
26.2811
 11
-17.2375
 21
26.2265
  0
LINE
  8
0
 10
-17.2375
 20
26.2265
 11
-17.2948
 21
26.1731
  0
LINE
  8
0
 10
-17.2948
 20
26.1731
 11
-17.3625
 21
26.121
  0
LINE
  8
0
 10
-17.3625
 20
26.121
 11
-17.3835
 21
26.1182
  0
LINE
  8
0
 10
-17.3835
 20
26.1182
 11
-17.415
 21
26.1043
  0
LINE
  8
0
 10
-17.415
 20
26.1043
 11
-17.4355
 21
26.0888
  0
LINE
  8
0
 10
-17.4355
 20
26.0888
 11
-17.4455
 21
26.079
  0
LINE
  8
0
 10
-17.4455
 20
26.079
 11
-17.7472
 21
25.8942
  0
LINE
  8
0
 10
-17.7472
 20
25.8942
 11
-17.7795
 21
25.873
  0
LINE
  8
0
 10
-17.7795
 20
25.873
 11
-17.809
 21
25.8407
  0
LINE
  8
0
 10
-17.809
 20
25.8407
 11
-17.8345
 21
25.8057
  0
LINE
  8
0
 10
-17.8345
 20
25.8057
 11
-17.856
 21
25.7682
  0
LINE
  8
0
 10
-17.856
 20
25.7682
 11
-17.8735
 21
25.728
  0
LINE
  8
0
 10
-17.8735
 20
25.728
 11
-17.8871
 21
25.6844
  0
LINE
  8
0
 10
-17.8871
 20
25.6844
 11
-17.8968
 21
25.6355
  0
LINE
  8
0
 10
-17.8968
 20
25.6355
 11
-17.9026
 21
25.5814
  0
LINE
  8
0
 10
-17.9026
 20
25.5814
 11
-17.9045
 21
25.522
  0
LINE
  8
0
 10
-17.9045
 20
25.522
 11
-17.8928
 21
25.4037
  0
LINE
  8
0
 10
-17.8928
 20
25.4037
 11
-17.8575
 21
25.2997
  0
LINE
  8
0
 10
-17.8575
 20
25.2997
 11
-17.7988
 21
25.2102
  0
LINE
  8
0
 10
-17.7988
 20
25.2102
 11
-17.7165
 21
25.135
  0
LINE
  8
0
 10
-17.7165
 20
25.135
 11
-17.616
 21
25.0759
  0
LINE
  8
0
 10
-17.616
 20
25.0759
 11
-17.5025
 21
25.0337
  0
LINE
  8
0
 10
-17.5025
 20
25.0337
 11
-17.376
 21
25.0084
  0
LINE
  8
0
 10
-17.376
 20
25.0084
 11
-17.2365
 21
25
  0
LINE
  8
0
 10
-17.2365
 20
25
 11
-12.1465
 21
25
  0
LINE
  8
0
 10
-12.1465
 20
25
 11
-11.9605
 21
25.0078
  0
LINE
  8
0
 10
-20.7128
 20
25.0078
 11
-20.5648
 21
25.0312
  0
LINE
  8
0
 10
-20.5648
 20
25.0312
 11
-20.4363
 21
25.0703
  0
LINE
  8
0
 10
-20.4363
 20
25.0703
 11
-20.3275
 21
25.125
  0
LINE
  8
0
 10
-20.3275
 20
25.125
 11
-20.2409
 21
25.1941
  0
LINE
  8
0
 10
-20.2409
 20
25.1941
 11
-20.179
 21
25.2762
  0
LINE
  8
0
 10
-20.179
 20
25.2762
 11
-20.1419
 21
25.3716
  0
LINE
  8
0
 10
-20.1419
 20
25.3716
 11
-20.1295
 21
25.48
  0
LINE
  8
0
 10
-20.1295
 20
25.48
 11
-20.1353
 21
25.5615
  0
LINE
  8
0
 10
-20.1353
 20
25.5615
 11
-20.1525
 21
25.639
  0
LINE
  8
0
 10
-20.1525
 20
25.639
 11
-20.1813
 21
25.7125
  0
LINE
  8
0
 10
-20.1813
 20
25.7125
 11
-20.2215
 21
25.782
  0
LINE
  8
0
 10
-20.2215
 20
25.782
 11
-20.272
 21
25.848
  0
LINE
  8
0
 10
-20.272
 20
25.848
 11
-20.3315
 21
25.91
  0
LINE
  8
0
 10
-20.3315
 20
25.91
 11
-20.4
 21
25.968
  0
LINE
  8
0
 10
-20.4
 20
25.968
 11
-20.4775
 21
26.022
  0
LINE
  8
0
 10
-20.4775
 20
26.022
 11
-20.8055
 21
26.168
  0
LINE
  8
0
 10
-20.8055
 20
26.168
 11
-20.9404
 21
26.2381
  0
LINE
  8
0
 10
-20.9404
 20
26.2381
 11
-21.0588
 21
26.3222
  0
LINE
  8
0
 10
-21.0588
 20
26.3222
 11
-21.1608
 21
26.4205
  0
LINE
  8
0
 10
-21.1608
 20
26.4205
 11
-21.2465
 21
26.533
  0
LINE
  8
0
 10
-21.2465
 20
26.533
 11
-21.3139
 21
26.6563
  0
LINE
  8
0
 10
-21.3139
 20
26.6563
 11
-21.362
 21
26.7862
  0
LINE
  8
0
 10
-21.362
 20
26.7862
 11
-21.3909
 21
26.9228
  0
LINE
  8
0
 10
-21.3909
 20
26.9228
 11
-21.4005
 21
27.066
  0
LINE
  8
0
 10
-21.4005
 20
27.066
 11
-21.4005
 21
27.201
  0
LINE
  8
0
 10
-21.4005
 20
27.201
 11
-21.3992
 21
27.2369
  0
LINE
  8
0
 10
-21.3992
 20
27.2369
 11
-21.3953
 21
27.2715
  0
LINE
  8
0
 10
-21.3953
 20
27.2715
 11
-21.3887
 21
27.3049
  0
LINE
  8
0
 10
-21.3887
 20
27.3049
 11
-21.3795
 21
27.337
  0
LINE
  8
0
 10
-21.3795
 20
27.337
 11
-21.377
 21
27.4017
  0
LINE
  8
0
 10
-21.377
 20
27.4017
 11
-21.3695
 21
27.472
  0
LINE
  8
0
 10
-21.3695
 20
27.472
 11
-21.3474
 21
27.5877
  0
LINE
  8
0
 10
-21.3474
 20
27.5877
 11
-21.3375
 21
27.629
  0
LINE
  8
0
 10
-21.3375
 20
27.629
 11
-19.5225
 21
34.201
  0
LINE
  8
0
 10
-19.5225
 20
34.201
 11
-20.0435
 21
36.308
  0
LINE
  8
0
 10
-20.0435
 20
36.308
 11
-22.3465
 21
27.9
  0
LINE
  8
0
 10
-22.3465
 20
27.9
 11
-22.4579
 21
27.5296
  0
LINE
  8
0
 10
-22.4579
 20
27.5296
 11
-22.581
 21
27.2112
  0
LINE
  8
0
 10
-22.581
 20
27.2112
 11
-22.7159
 21
26.9451
  0
LINE
  8
0
 10
-22.7159
 20
26.9451
 11
-22.8625
 21
26.731
  0
LINE
  8
0
 10
-22.8625
 20
26.731
 11
-23.0363
 21
26.5487
  0
LINE
  8
0
 10
-23.0363
 20
26.5487
 11
-23.2535
 21
26.3767
  0
LINE
  8
0
 10
-23.2535
 20
26.3767
 11
-23.5143
 21
26.2152
  0
LINE
  8
0
 10
-23.5143
 20
26.2152
 11
-23.8185
 21
26.064
  0
LINE
  8
0
 10
-23.8185
 20
26.064
 11
-23.9358
 21
26.0106
  0
LINE
  8
0
 10
-23.9358
 20
26.0106
 11
-24.0345
 21
25.9545
  0
LINE
  8
0
 10
-24.0345
 20
25.9545
 11
-24.1148
 21
25.8956
  0
LINE
  8
0
 10
-24.1148
 20
25.8956
 11
-24.1765
 21
25.834
  0
LINE
  8
0
 10
-24.1765
 20
25.834
 11
-24.2225
 21
25.7689
  0
LINE
  8
0
 10
-24.2225
 20
25.7689
 11
-24.2553
 21
25.6985
  0
LINE
  8
0
 10
-24.2553
 20
25.6985
 11
-24.275
 21
25.6229
  0
LINE
  8
0
 10
-24.275
 20
25.6229
 11
-24.2815
 21
25.542
  0
LINE
  8
0
 10
-24.2815
 20
25.542
 11
-24.2672
 21
25.4235
  0
LINE
  8
0
 10
-24.2672
 20
25.4235
 11
-24.2243
 21
25.318
  0
LINE
  8
0
 10
-24.2243
 20
25.318
 11
-24.1527
 21
25.2255
  0
LINE
  8
0
 10
-24.1527
 20
25.2255
 11
-24.0525
 21
25.146
  0
LINE
  8
0
 10
-24.0525
 20
25.146
 11
-23.9297
 21
25.0821
  0
LINE
  8
0
 10
-23.9297
 20
25.0821
 11
-23.7913
 21
25.0365
  0
LINE
  8
0
 10
-23.7913
 20
25.0365
 11
-23.6372
 21
25.0091
  0
LINE
  8
0
 10
-23.6372
 20
25.0091
 11
-23.4675
 21
25
  0
LINE
  8
0
 10
-23.4675
 20
25
 11
-20.8805
 21
25
  0
LINE
  8
0
 10
-20.8805
 20
25
 11
-20.7128
 21
25.0078
  0
LINE
  8
0
 10
-79.5511
 20
25.0072
 11
-79.364
 21
25.0287
  0
LINE
  8
0
 10
-79.364
 20
25.0287
 11
-79.2122
 21
25.0647
  0
LINE
  8
0
 10
-79.2122
 20
25.0647
 11
-79.0955
 21
25.115
  0
LINE
  8
0
 10
-79.0955
 20
25.115
 11
-79.0085
 21
25.1822
  0
LINE
  8
0
 10
-79.0085
 20
25.1822
 11
-78.9463
 21
25.269
  0
LINE
  8
0
 10
-78.9463
 20
25.269
 11
-78.909
 21
25.3752
  0
LINE
  8
0
 10
-78.909
 20
25.3752
 11
-78.8965
 21
25.501
  0
LINE
  8
0
 10
-78.8965
 20
25.501
 11
-78.9005
 21
25.5721
  0
LINE
  8
0
 10
-78.9005
 20
25.5721
 11
-78.9123
 21
25.6392
  0
LINE
  8
0
 10
-78.9123
 20
25.6392
 11
-78.932
 21
25.7026
  0
LINE
  8
0
 10
-78.932
 20
25.7026
 11
-78.9595
 21
25.762
  0
LINE
  8
0
 10
-78.9595
 20
25.762
 11
-78.9962
 21
25.8188
  0
LINE
  8
0
 10
-78.9962
 20
25.8188
 11
-79.0433
 21
25.8742
  0
LINE
  8
0
 10
-79.0433
 20
25.8742
 11
-79.1007
 21
25.9283
  0
LINE
  8
0
 10
-79.1007
 20
25.9283
 11
-79.1685
 21
25.981
  0
LINE
  8
0
 10
-79.1685
 20
25.981
 11
-79.4605
 21
26.127
  0
LINE
  8
0
 10
-79.4605
 20
26.127
 11
-79.7035
 21
26.2834
  0
LINE
  8
0
 10
-79.7035
 20
26.2834
 11
-79.9113
 21
26.4605
  0
LINE
  8
0
 10
-79.9113
 20
26.4605
 11
-80.084
 21
26.6584
  0
LINE
  8
0
 10
-80.084
 20
26.6584
 11
-80.2215
 21
26.877
  0
LINE
  8
0
 10
-80.2215
 20
26.877
 11
-80.3265
 21
27.1234
  0
LINE
  8
0
 10
-80.3265
 20
27.1234
 11
-80.4015
 21
27.4035
  0
LINE
  8
0
 10
-80.4015
 20
27.4035
 11
-80.4465
 21
27.7174
  0
LINE
  8
0
 10
-80.4465
 20
27.7174
 11
-80.4615
 21
28.065
  0
LINE
  8
0
 10
-80.4615
 20
28.065
 11
-80.4615
 21
33.527
  0
LINE
  8
0
 10
-80.4615
 20
33.527
 11
-81.5255
 21
35.34
  0
LINE
  8
0
 10
-81.5255
 20
35.34
 11
-81.5255
 21
28.044
  0
LINE
  8
0
 10
-81.5255
 20
28.044
 11
-81.5405
 21
27.7042
  0
LINE
  8
0
 10
-81.5405
 20
27.7042
 11
-81.5855
 21
27.393
  0
LINE
  8
0
 10
-81.5855
 20
27.393
 11
-81.6605
 21
27.1102
  0
LINE
  8
0
 10
-81.6605
 20
27.1102
 11
-81.7655
 21
26.856
  0
LINE
  8
0
 10
-81.7655
 20
26.856
 11
-81.9018
 21
26.6282
  0
LINE
  8
0
 10
-81.9018
 20
26.6282
 11
-82.0708
 21
26.4237
  0
LINE
  8
0
 10
-82.0708
 20
26.4237
 11
-82.2723
 21
26.2427
  0
LINE
  8
0
 10
-82.2723
 20
26.2427
 11
-82.5065
 21
26.085
  0
LINE
  8
0
 10
-82.5065
 20
26.085
 11
-82.6578
 21
25.9887
  0
LINE
  8
0
 10
-82.6578
 20
25.9887
 11
-82.7775
 21
25.908
  0
LINE
  8
0
 10
-82.7775
 20
25.908
 11
-82.827
 21
25.8721
  0
LINE
  8
0
 10
-82.827
 20
25.8721
 11
-82.8713
 21
25.8375
  0
LINE
  8
0
 10
-82.8713
 20
25.8375
 11
-82.9105
 21
25.8041
  0
LINE
  8
0
 10
-82.9105
 20
25.8041
 11
-82.9445
 21
25.772
  0
LINE
  8
0
 10
-82.9445
 20
25.772
 11
-82.9642
 21
25.7501
  0
LINE
  8
0
 10
-82.9642
 20
25.7501
 11
-82.9813
 21
25.7255
  0
LINE
  8
0
 10
-82.9813
 20
25.7255
 11
-82.9957
 21
25.6981
  0
LINE
  8
0
 10
-82.9957
 20
25.6981
 11
-83.0075
 21
25.668
  0
LINE
  8
0
 10
-83.0075
 20
25.668
 11
-83.0163
 21
25.6352
  0
LINE
  8
0
 10
-83.0163
 20
25.6352
 11
-83.0225
 21
25.6
  0
LINE
  8
0
 10
-83.0225
 20
25.6
 11
-83.0263
 21
25.5622
  0
LINE
  8
0
 10
-83.0263
 20
25.5622
 11
-83.0275
 21
25.522
  0
LINE
  8
0
 10
-83.0275
 20
25.522
 11
-83.0132
 21
25.3956
  0
LINE
  8
0
 10
-83.0132
 20
25.3956
 11
-82.9703
 21
25.2872
  0
LINE
  8
0
 10
-82.9703
 20
25.2872
 11
-82.8987
 21
25.1971
  0
LINE
  8
0
 10
-82.8987
 20
25.1971
 11
-82.7985
 21
25.125
  0
LINE
  8
0
 10
-82.7985
 20
25.125
 11
-82.6692
 21
25.0703
  0
LINE
  8
0
 10
-82.6692
 20
25.0703
 11
-82.5113
 21
25.0312
  0
LINE
  8
0
 10
-82.5113
 20
25.0312
 11
-82.3247
 21
25.0078
  0
LINE
  8
0
 10
-82.3247
 20
25.0078
 11
-82.1095
 21
25
  0
LINE
  8
0
 10
-82.1095
 20
25
 11
-79.7735
 21
25
  0
LINE
  8
0
 10
-79.7735
 20
25
 11
-79.5511
 21
25.0072
  0
LINE
  8
0
 10
11.0317
 20
29.2841
 11
11.1436
 21
29.3172
  0
LINE
  8
0
 10
11.1436
 20
29.3172
 11
11.2317
 21
29.3726
  0
LINE
  8
0
 10
11.2317
 20
29.3726
 11
11.2961
 21
29.45
  0
LINE
  8
0
 10
11.2961
 20
29.45
 11
11.3425
 21
29.5592
  0
LINE
  8
0
 10
11.3425
 20
29.5592
 11
11.3756
 21
29.7087
  0
LINE
  8
0
 10
11.3756
 20
29.7087
 11
11.3955
 21
29.8987
  0
LINE
  8
0
 10
11.3955
 20
29.8987
 11
11.4021
 21
30.129
  0
LINE
  8
0
 10
11.4021
 20
30.129
 11
11.4021
 21
33.967
  0
LINE
  8
0
 10
11.4021
 20
33.967
 11
11.3955
 21
34.1972
  0
LINE
  8
0
 10
11.3955
 20
34.1972
 11
11.3756
 21
34.387
  0
LINE
  8
0
 10
11.3756
 20
34.387
 11
11.3425
 21
34.5362
  0
LINE
  8
0
 10
11.3425
 20
34.5362
 11
11.2961
 21
34.645
  0
LINE
  8
0
 10
11.2961
 20
34.645
 11
11.2317
 21
34.7229
  0
LINE
  8
0
 10
11.2317
 20
34.7229
 11
11.1436
 21
34.7785
  0
LINE
  8
0
 10
11.1436
 20
34.7785
 11
11.0317
 21
34.8119
  0
LINE
  8
0
 10
11.0317
 20
34.8119
 11
10.8961
 21
34.823
  0
LINE
  8
0
 10
10.8961
 20
34.823
 11
10.769
 21
34.8139
  0
LINE
  8
0
 10
10.769
 20
34.8139
 11
10.6616
 21
34.7865
  0
LINE
  8
0
 10
10.6616
 20
34.7865
 11
10.574
 21
34.7409
  0
LINE
  8
0
 10
10.574
 20
34.7409
 11
10.5061
 21
34.677
  0
LINE
  8
0
 10
10.5061
 20
34.677
 11
10.4487
 21
34.5883
  0
LINE
  8
0
 10
10.4487
 20
34.5883
 11
10.3926
 21
34.4682
  0
LINE
  8
0
 10
10.3926
 20
34.4682
 11
10.3377
 21
34.3168
  0
LINE
  8
0
 10
10.3377
 20
34.3168
 11
10.2841
 21
34.134
  0
LINE
  8
0
 10
10.2841
 20
34.134
 11
10.2112
 21
33.8674
  0
LINE
  8
0
 10
10.2112
 20
33.8674
 11
10.1183
 21
33.6307
  0
LINE
  8
0
 10
10.1183
 20
33.6307
 11
10.0057
 21
33.4239
  0
LINE
  8
0
 10
10.0057
 20
33.4239
 11
9.87309
 21
33.247
  0
LINE
  8
0
 10
9.87309
 20
33.247
 11
9.71153
 21
33.0887
  0
LINE
  8
0
 10
9.71153
 20
33.0887
 11
9.51184
 21
32.937
  0
LINE
  8
0
 10
9.51184
 20
32.937
 11
9.27403
 21
32.7917
  0
LINE
  8
0
 10
9.27403
 20
32.7917
 11
8.99809
 21
32.653
  0
LINE
  8
0
 10
8.99809
 20
32.653
 11
8.99809
 21
31.464
  0
LINE
  8
0
 10
8.99809
 20
31.464
 11
9.23923
 21
31.3858
  0
LINE
  8
0
 10
9.23923
 20
31.3858
 11
9.4566
 21
31.2762
  0
LINE
  8
0
 10
9.4566
 20
31.2762
 11
9.65022
 21
31.1353
  0
LINE
  8
0
 10
9.65022
 20
31.1353
 11
9.8201
 21
30.963
  0
LINE
  8
0
 10
9.8201
 20
30.963
 11
9.96928
 21
30.7546
  0
LINE
  8
0
 10
9.96928
 20
30.7546
 11
10.0999
 21
30.5042
  0
LINE
  8
0
 10
10.0999
 20
30.5042
 11
10.2118
 21
30.2121
  0
LINE
  8
0
 10
10.2118
 20
30.2121
 11
10.3051
 21
29.878
  0
LINE
  8
0
 10
10.3051
 20
29.878
 11
10.3593
 21
29.7234
  0
LINE
  8
0
 10
10.3593
 20
29.7234
 11
10.4161
 21
29.5935
  0
LINE
  8
0
 10
10.4161
 20
29.5935
 11
10.4753
 21
29.4884
  0
LINE
  8
0
 10
10.4753
 20
29.4884
 11
10.5371
 21
29.408
  0
LINE
  8
0
 10
10.5371
 20
29.408
 11
10.6072
 21
29.3489
  0
LINE
  8
0
 10
10.6072
 20
29.3489
 11
10.6904
 21
29.3067
  0
LINE
  8
0
 10
10.6904
 20
29.3067
 11
10.7867
 21
29.2814
  0
LINE
  8
0
 10
10.7867
 20
29.2814
 11
10.8961
 21
29.273
  0
LINE
  8
0
 10
10.8961
 20
29.273
 11
11.0317
 21
29.2841
  0
LINE
  8
0
 10
-5.65724
 20
25.814
 11
-5.86057
 21
25.8612
  0
LINE
  8
0
 10
-5.86057
 20
25.8612
 11
-6.0535
 21
25.9187
  0
LINE
  8
0
 10
-6.0535
 20
25.9187
 11
-6.23605
 21
25.9867
  0
LINE
  8
0
 10
-6.23605
 20
25.9867
 11
-6.40825
 21
26.065
  0
LINE
  8
0
 10
-6.40825
 20
26.065
 11
-6.57262
 21
26.155
  0
LINE
  8
0
 10
-6.57262
 20
26.155
 11
-6.73175
 21
26.258
  0
LINE
  8
0
 10
-6.73175
 20
26.258
 11
-6.88562
 21
26.374
  0
LINE
  8
0
 10
-6.88562
 20
26.374
 11
-7.03424
 21
26.503
  0
LINE
  8
0
 10
-7.03424
 20
26.503
 11
-7.18025
 21
26.649
  0
LINE
  8
0
 10
-7.18025
 20
26.649
 11
-7.45924
 21
26.9475
  0
LINE
  8
0
 10
-7.45924
 20
26.9475
 11
-7.71225
 21
27.259
  0
LINE
  8
0
 10
-7.71225
 20
27.259
 11
-7.93924
 21
27.5835
  0
LINE
  8
0
 10
-7.93924
 20
27.5835
 11
-8.14024
 21
27.921
  0
LINE
  8
0
 10
-8.14024
 20
27.921
 11
-8.31868
 21
28.2746
  0
LINE
  8
0
 10
-8.31868
 20
28.2746
 11
-8.479
 21
28.6465
  0
LINE
  8
0
 10
-8.479
 20
28.6465
 11
-8.62119
 21
29.0366
  0
LINE
  8
0
 10
-8.62119
 20
29.0366
 11
-8.74524
 21
29.445
  0
LINE
  8
0
 10
-8.74524
 20
29.445
 11
-8.78943
 21
29.5992
  0
LINE
  8
0
 10
-8.78943
 20
29.5992
 11
-8.83899
 21
29.7287
  0
LINE
  8
0
 10
-8.83899
 20
29.7287
 11
-8.89394
 21
29.8337
  0
LINE
  8
0
 10
-8.89394
 20
29.8337
 11
-8.95424
 21
29.914
  0
LINE
  8
0
 10
-8.95424
 20
29.914
 11
-9.02324
 21
29.9735
  0
LINE
  8
0
 10
-9.02324
 20
29.9735
 11
-9.10524
 21
30.016
  0
LINE
  8
0
 10
-9.10524
 20
30.016
 11
-9.20024
 21
30.0415
  0
LINE
  8
0
 10
-9.20024
 20
30.0415
 11
-9.30824
 21
30.05
  0
LINE
  8
0
 10
-9.30824
 20
30.05
 11
-9.42805
 21
30.0376
  0
LINE
  8
0
 10
-9.42805
 20
30.0376
 11
-9.53749
 21
30.0002
  0
LINE
  8
0
 10
-9.53749
 20
30.0002
 11
-9.63657
 21
29.938
  0
LINE
  8
0
 10
-9.63657
 20
29.938
 11
-9.72525
 21
29.851
  0
LINE
  8
0
 10
-9.72525
 20
29.851
 11
-9.79831
 21
29.7474
  0
LINE
  8
0
 10
-9.79831
 20
29.7474
 11
-9.85049
 21
29.6347
  0
LINE
  8
0
 10
-9.85049
 20
29.6347
 11
-9.88181
 21
29.5129
  0
LINE
  8
0
 10
-9.88181
 20
29.5129
 11
-9.89224
 21
29.382
  0
LINE
  8
0
 10
-9.89224
 20
29.382
 11
-9.89224
 21
25.668
  0
LINE
  8
0
 10
-9.89224
 20
25.668
 11
-9.88312
 21
25.4707
  0
LINE
  8
0
 10
-9.88312
 20
25.4707
 11
-9.85574
 21
25.297
  0
LINE
  8
0
 10
-9.85574
 20
25.297
 11
-9.81012
 21
25.1467
  0
LINE
  8
0
 10
-9.81012
 20
25.1467
 11
-9.74625
 21
25.02
  0
LINE
  8
0
 10
-9.74625
 20
25.02
 11
-9.66544
 21
24.9198
  0
LINE
  8
0
 10
-9.66544
 20
24.9198
 11
-9.569
 21
24.8483
  0
LINE
  8
0
 10
-9.569
 20
24.8483
 11
-9.45694
 21
24.8053
  0
LINE
  8
0
 10
-9.45694
 20
24.8053
 11
-9.32924
 21
24.791
  0
LINE
  8
0
 10
-9.32924
 20
24.791
 11
-9.27988
 21
24.793
  0
LINE
  8
0
 10
-9.27988
 20
24.793
 11
-9.23575
 21
24.799
  0
LINE
  8
0
 10
-9.23575
 20
24.799
 11
-9.19687
 21
24.809
  0
LINE
  8
0
 10
-9.19687
 20
24.809
 11
-9.16325
 21
24.823
  0
LINE
  8
0
 10
-9.16325
 20
24.823
 11
-9.13043
 21
24.8404
  0
LINE
  8
0
 10
-9.13043
 20
24.8404
 11
-9.05693
 21
24.8869
  0
LINE
  8
0
 10
-9.05693
 20
24.8869
 11
-9.01625
 21
24.916
  0
LINE
  8
0
 10
-9.01625
 20
24.916
 11
-8.93324
 21
25
  0
LINE
  8
0
 10
-8.93324
 20
25
 11
-8.87331
 21
25.0782
  0
LINE
  8
0
 10
-8.87331
 20
25.0782
 11
-8.8185
 21
25.146
  0
LINE
  8
0
 10
-8.8185
 20
25.146
 11
-8.76881
 21
25.2032
  0
LINE
  8
0
 10
-8.76881
 20
25.2032
 11
-8.72424
 21
25.25
  0
LINE
  8
0
 10
-8.72424
 20
25.25
 11
-8.68231
 21
25.2893
  0
LINE
  8
0
 10
-8.68231
 20
25.2893
 11
-8.6405
 21
25.3232
  0
LINE
  8
0
 10
-8.6405
 20
25.3232
 11
-8.59882
 21
25.3518
  0
LINE
  8
0
 10
-8.59882
 20
25.3518
 11
-8.55725
 21
25.375
  0
LINE
  8
0
 10
-8.55725
 20
25.375
 11
-8.535
 21
25.3848
  0
LINE
  8
0
 10
-8.535
 20
25.3848
 11
-8.51025
 21
25.3932
  0
LINE
  8
0
 10
-8.51025
 20
25.3932
 11
-8.45325
 21
25.406
  0
LINE
  8
0
 10
-8.45325
 20
25.406
 11
-8.39024
 21
25.4142
  0
LINE
  8
0
 10
-8.39024
 20
25.4142
 11
-8.32724
 21
25.417
  0
LINE
  8
0
 10
-8.32724
 20
25.417
 11
-8.20224
 21
25.417
  0
LINE
  8
0
 10
-8.20224
 20
25.417
 11
-8.14763
 21
25.4039
  0
LINE
  8
0
 10
-8.14763
 20
25.4039
 11
-8.08775
 21
25.3855
  0
LINE
  8
0
 10
-8.08775
 20
25.3855
 11
-8.02263
 21
25.3619
  0
LINE
  8
0
 10
-8.02263
 20
25.3619
 11
-7.8688
 21
25.2967
  0
LINE
  8
0
 10
-7.8688
 20
25.2967
 11
-7.49324
 21
25.125
  0
LINE
  8
0
 10
-7.49324
 20
25.125
 11
-7.37831
 21
25.0657
  0
LINE
  8
0
 10
-7.37831
 20
25.0657
 11
-7.26349
 21
25.013
  0
LINE
  8
0
 10
-7.26349
 20
25.013
 11
-7.1488
 21
24.9668
  0
LINE
  8
0
 10
-7.1488
 20
24.9668
 11
-7.03424
 21
24.927
  0
LINE
  8
0
 10
-7.03424
 20
24.927
 11
-6.80449
 21
24.8565
  0
LINE
  8
0
 10
-6.80449
 20
24.8565
 11
-6.57524
 21
24.791
  0
LINE
  8
0
 10
-6.57524
 20
24.791
 11
-6.46031
 21
24.7619
  0
LINE
  8
0
 10
-6.46031
 20
24.7619
 11
-6.34549
 21
24.7368
  0
LINE
  8
0
 10
-6.34549
 20
24.7368
 11
-6.2308
 21
24.7154
  0
LINE
  8
0
 10
-6.2308
 20
24.7154
 11
-6.11624
 21
24.698
  0
LINE
  8
0
 10
-6.11624
 20
24.698
 11
-6.00131
 21
24.684
  0
LINE
  8
0
 10
-6.00131
 20
24.684
 11
-5.88649
 21
24.674
  0
LINE
  8
0
 10
-5.88649
 20
24.674
 11
-5.7718
 21
24.668
  0
LINE
  8
0
 10
-5.7718
 20
24.668
 11
-5.65724
 21
24.666
  0
LINE
  8
0
 10
-5.65724
 20
24.666
 11
-5.65724
 21
25.814
  0
LINE
  8
0
 10
-24.9256
 20
29.131
 11
-24.9321
 21
29.2961
  0
LINE
  8
0
 10
-24.9321
 20
29.2961
 11
-24.9516
 21
29.4362
  0
LINE
  8
0
 10
-24.9516
 20
29.4362
 11
-24.9841
 21
29.5516
  0
LINE
  8
0
 10
-24.9841
 20
29.5516
 11
-25.0296
 21
29.642
  0
LINE
  8
0
 10
-25.0296
 20
29.642
 11
-25.0915
 21
29.7107
  0
LINE
  8
0
 10
-25.0915
 20
29.7107
 11
-25.1743
 21
29.7597
  0
LINE
  8
0
 10
-25.1743
 20
29.7597
 11
-25.278
 21
29.7892
  0
LINE
  8
0
 10
-25.278
 20
29.7892
 11
-25.4026
 21
29.799
  0
LINE
  8
0
 10
-25.4026
 20
29.799
 11
-25.4911
 21
29.7944
  0
LINE
  8
0
 10
-25.4911
 20
29.7944
 11
-25.5706
 21
29.7807
  0
LINE
  8
0
 10
-25.5706
 20
29.7807
 11
-25.6411
 21
29.7579
  0
LINE
  8
0
 10
-25.6411
 20
29.7579
 11
-25.7026
 21
29.726
  0
LINE
  8
0
 10
-25.7026
 20
29.726
 11
-25.7589
 21
29.6797
  0
LINE
  8
0
 10
-25.7589
 20
29.6797
 11
-25.8141
 21
29.6137
  0
LINE
  8
0
 10
-25.8141
 20
29.6137
 11
-25.8679
 21
29.5282
  0
LINE
  8
0
 10
-25.8679
 20
29.5282
 11
-25.9206
 21
29.423
  0
LINE
  8
0
 10
-25.9206
 20
29.423
 11
-25.9411
 21
29.3782
  0
LINE
  8
0
 10
-25.9411
 20
29.3782
 11
-25.9618
 21
29.3267
  0
LINE
  8
0
 10
-25.9618
 20
29.3267
 11
-25.9826
 21
29.2687
  0
LINE
  8
0
 10
-25.9826
 20
29.2687
 11
-26.0498
 21
29.0605
  0
LINE
  8
0
 10
-26.0498
 20
29.0605
 11
-26.1066
 21
28.902
  0
LINE
  8
0
 10
-26.1066
 20
28.902
 11
-26.2426
 21
28.4969
  0
LINE
  8
0
 10
-26.2426
 20
28.4969
 11
-26.3996
 21
28.1165
  0
LINE
  8
0
 10
-26.3996
 20
28.1165
 11
-26.5776
 21
27.7609
  0
LINE
  8
0
 10
-26.5776
 20
27.7609
 11
-26.7766
 21
27.43
  0
LINE
  8
0
 10
-26.7766
 20
27.43
 11
-26.9921
 21
27.1322
  0
LINE
  8
0
 10
-26.9921
 20
27.1322
 11
-27.2208
 21
26.8747
  0
LINE
  8
0
 10
-27.2208
 20
26.8747
 11
-27.4626
 21
26.6577
  0
LINE
  8
0
 10
-27.4626
 20
26.6577
 11
-27.7176
 21
26.481
  0
LINE
  8
0
 10
-27.7176
 20
26.481
 11
-27.7353
 21
26.4782
  0
LINE
  8
0
 10
-27.7353
 20
26.4782
 11
-27.7486
 21
26.47
  0
LINE
  8
0
 10
-27.7486
 20
26.47
 11
-27.7796
 21
26.44
  0
LINE
  8
0
 10
-27.7796
 20
26.44
 11
-27.8854
 21
26.3895
  0
LINE
  8
0
 10
-27.8854
 20
26.3895
 11
-27.9941
 21
26.343
  0
LINE
  8
0
 10
-27.9941
 20
26.343
 11
-28.1054
 21
26.3005
  0
LINE
  8
0
 10
-28.1054
 20
26.3005
 11
-28.2196
 21
26.262
  0
LINE
  8
0
 10
-28.2196
 20
26.262
 11
-28.345
 21
26.2275
  0
LINE
  8
0
 10
-28.345
 20
26.2275
 11
-28.4913
 21
26.197
  0
LINE
  8
0
 10
-28.4913
 20
26.197
 11
-28.6585
 21
26.1705
  0
LINE
  8
0
 10
-28.6585
 20
26.1705
 11
-28.8466
 21
26.148
  0
LINE
  8
0
 10
-28.8466
 20
26.148
 11
-28.8466
 21
25
  0
LINE
  8
0
 10
-28.8466
 20
25
 11
-24.9256
 21
25
  0
LINE
  8
0
 10
-24.9256
 20
25
 11
-24.9256
 21
29.131
  0
LINE
  8
0
 10
13.2751
 20
28.568
 11
13.2679
 21
28.7694
  0
LINE
  8
0
 10
13.2679
 20
28.7694
 11
13.2464
 21
28.9355
  0
LINE
  8
0
 10
13.2464
 20
28.9355
 11
13.2104
 21
29.0664
  0
LINE
  8
0
 10
13.2104
 20
29.0664
 11
13.1601
 21
29.162
  0
LINE
  8
0
 10
13.1601
 20
29.162
 11
13.0902
 21
29.2307
  0
LINE
  8
0
 10
13.0902
 20
29.2307
 11
12.9956
 21
29.2797
  0
LINE
  8
0
 10
12.9956
 20
29.2797
 11
12.8762
 21
29.3092
  0
LINE
  8
0
 10
12.8762
 20
29.3092
 11
12.7321
 21
29.319
  0
LINE
  8
0
 10
12.7321
 20
29.319
 11
12.6532
 21
29.3144
  0
LINE
  8
0
 10
12.6532
 20
29.3144
 11
12.5833
 21
29.3007
  0
LINE
  8
0
 10
12.5833
 20
29.3007
 11
12.5227
 21
29.2779
  0
LINE
  8
0
 10
12.5227
 20
29.2779
 11
12.4711
 21
29.246
  0
LINE
  8
0
 10
12.4711
 20
29.246
 11
12.4238
 21
29.2023
  0
LINE
  8
0
 10
12.4238
 20
29.2023
 11
12.3751
 21
29.1442
  0
LINE
  8
0
 10
12.3751
 20
29.1442
 11
12.3248
 21
29.0718
  0
LINE
  8
0
 10
12.3248
 20
29.0718
 11
12.2731
 21
28.985
  0
LINE
  8
0
 10
12.2731
 20
28.985
 11
12.2062
 21
28.849
  0
LINE
  8
0
 10
12.2062
 20
28.849
 11
12.1802
 21
28.787
  0
LINE
  8
0
 10
12.1802
 20
28.787
 11
12.1691
 21
28.756
  0
LINE
  8
0
 10
12.1691
 20
28.756
 11
11.9305
 21
28.1857
  0
LINE
  8
0
 10
11.9305
 20
28.1857
 11
11.6528
 21
27.686
  0
LINE
  8
0
 10
11.6528
 20
27.686
 11
11.336
 21
27.2567
  0
LINE
  8
0
 10
11.336
 20
27.2567
 11
10.9801
 21
26.898
  0
LINE
  8
0
 10
10.9801
 20
26.898
 11
10.5746
 21
26.6062
  0
LINE
  8
0
 10
10.5746
 20
26.6062
 11
10.1091
 21
26.377
  0
LINE
  8
0
 10
10.1091
 20
26.377
 11
9.5836
 21
26.2102
  0
LINE
  8
0
 10
9.5836
 20
26.2102
 11
8.99809
 21
26.106
  0
LINE
  8
0
 10
8.99809
 20
26.106
 11
8.99809
 21
25
  0
LINE
  8
0
 10
8.99809
 20
25
 11
13.2751
 21
25
  0
LINE
  8
0
 10
13.2751
 20
25
 11
13.2751
 21
28.568
  0
LINE
  8
0
 10
39.4657
 20
9.87587
 11
39.597
 21
9.9175
  0
LINE
  8
0
 10
39.597
 20
9.9175
 11
39.7062
 21
9.98686
  0
LINE
  8
0
 10
39.7062
 20
9.98686
 11
39.7933
 21
10.084
  0
LINE
  8
0
 10
39.7933
 20
10.084
 11
39.8602
 21
10.2089
  0
LINE
  8
0
 10
39.8602
 20
10.2089
 11
39.908
 21
10.3615
  0
LINE
  8
0
 10
39.908
 20
10.3615
 11
39.9367
 21
10.5419
  0
LINE
  8
0
 10
39.9367
 20
10.5419
 11
39.9463
 21
10.75
  0
LINE
  8
0
 10
39.9463
 20
10.75
 11
39.9463
 21
15.187
  0
LINE
  8
0
 10
39.9463
 20
15.187
 11
39.9382
 21
15.3819
  0
LINE
  8
0
 10
39.9382
 20
15.3819
 11
39.914
 21
15.5445
  0
LINE
  8
0
 10
39.914
 20
15.5445
 11
39.8737
 21
15.6749
  0
LINE
  8
0
 10
39.8737
 20
15.6749
 11
39.8173
 21
15.773
  0
LINE
  8
0
 10
39.8173
 20
15.773
 11
39.7403
 21
15.8452
  0
LINE
  8
0
 10
39.7403
 20
15.8452
 11
39.6383
 21
15.8967
  0
LINE
  8
0
 10
39.6383
 20
15.8967
 11
39.5113
 21
15.9277
  0
LINE
  8
0
 10
39.5113
 20
15.9277
 11
39.3593
 21
15.938
  0
LINE
  8
0
 10
39.3593
 20
15.938
 11
39.3022
 21
15.9358
  0
LINE
  8
0
 10
39.3022
 20
15.9358
 11
39.248
 21
15.9292
  0
LINE
  8
0
 10
39.248
 20
15.9292
 11
39.1967
 21
15.9183
  0
LINE
  8
0
 10
39.1967
 20
15.9183
 11
39.1483
 21
15.903
  0
LINE
  8
0
 10
39.1483
 20
15.903
 11
39.1013
 21
15.8832
  0
LINE
  8
0
 10
39.1013
 20
15.8832
 11
39.0543
 21
15.859
  0
LINE
  8
0
 10
39.0543
 20
15.859
 11
39.0073
 21
15.8302
  0
LINE
  8
0
 10
39.0073
 20
15.8302
 11
38.9603
 21
15.797
  0
LINE
  8
0
 10
38.9603
 20
15.797
 11
38.9181
 21
15.7619
  0
LINE
  8
0
 10
38.9181
 20
15.7619
 11
38.8845
 21
15.737
  0
LINE
  8
0
 10
38.8845
 20
15.737
 11
38.869
 21
15.721
  0
LINE
  8
0
 10
38.869
 20
15.721
 11
38.855
 21
15.702
  0
LINE
  8
0
 10
38.855
 20
15.702
 11
38.8423
 21
15.68
  0
LINE
  8
0
 10
38.8423
 20
15.68
 11
38.6778
 21
15.4772
  0
LINE
  8
0
 10
38.6778
 20
15.4772
 11
38.5603
 21
15.339
  0
LINE
  8
0
 10
38.5603
 20
15.339
 11
38.5148
 21
15.2901
  0
LINE
  8
0
 10
38.5148
 20
15.2901
 11
38.4723
 21
15.2485
  0
LINE
  8
0
 10
38.4723
 20
15.2485
 11
38.4328
 21
15.2141
  0
LINE
  8
0
 10
38.4328
 20
15.2141
 11
38.3963
 21
15.187
  0
LINE
  8
0
 10
38.3963
 20
15.187
 11
38.372
 21
15.1765
  0
LINE
  8
0
 10
38.372
 20
15.1765
 11
38.3463
 21
15.169
  0
LINE
  8
0
 10
38.3463
 20
15.169
 11
38.319
 21
15.1645
  0
LINE
  8
0
 10
38.319
 20
15.1645
 11
38.2903
 21
15.163
  0
LINE
  8
0
 10
38.2903
 20
15.163
 11
38.2605
 21
15.1645
  0
LINE
  8
0
 10
38.2605
 20
15.1645
 11
38.229
 21
15.169
  0
LINE
  8
0
 10
38.229
 20
15.169
 11
38.196
 21
15.1765
  0
LINE
  8
0
 10
38.196
 20
15.1765
 11
38.1613
 21
15.187
  0
LINE
  8
0
 10
38.1613
 20
15.187
 11
37.6213
 21
15.304
  0
LINE
  8
0
 10
37.6213
 20
15.304
 11
37.2977
 21
15.4261
  0
LINE
  8
0
 10
37.2977
 20
15.4261
 11
36.9608
 21
15.5335
  0
LINE
  8
0
 10
36.9608
 20
15.5335
 11
36.6107
 21
15.6261
  0
LINE
  8
0
 10
36.6107
 20
15.6261
 11
36.2473
 21
15.704
  0
LINE
  8
0
 10
36.2473
 20
15.704
 11
35.8648
 21
15.773
  0
LINE
  8
0
 10
35.8648
 20
15.773
 11
35.4573
 21
15.839
  0
LINE
  8
0
 10
35.4573
 20
15.839
 11
35.0248
 21
15.902
  0
LINE
  8
0
 10
35.0248
 20
15.902
 11
34.5673
 21
15.962
  0
LINE
  8
0
 10
34.5673
 20
15.962
 11
34.5673
 21
14.694
  0
LINE
  8
0
 10
34.5673
 20
14.694
 11
34.942
 21
14.6693
  0
LINE
  8
0
 10
34.942
 20
14.6693
 11
35.29
 21
14.6182
  0
LINE
  8
0
 10
35.29
 20
14.6182
 11
35.6115
 21
14.5408
  0
LINE
  8
0
 10
35.6115
 20
14.5408
 11
35.9063
 21
14.437
  0
LINE
  8
0
 10
35.9063
 20
14.437
 11
36.1795
 21
14.3073
  0
LINE
  8
0
 10
36.1795
 20
14.3073
 11
36.435
 21
14.1512
  0
LINE
  8
0
 10
36.435
 20
14.1512
 11
36.673
 21
13.9688
  0
LINE
  8
0
 10
36.673
 20
13.9688
 11
36.8933
 21
13.76
  0
LINE
  8
0
 10
36.8933
 20
13.76
 11
36.9518
 21
13.6997
  0
LINE
  8
0
 10
36.9518
 20
13.6997
 11
37.0103
 21
13.635
  0
LINE
  8
0
 10
37.0103
 20
13.635
 11
37.0688
 21
13.5657
  0
LINE
  8
0
 10
37.0688
 20
13.5657
 11
37.1273
 21
13.492
  0
LINE
  8
0
 10
37.1273
 20
13.492
 11
37.1863
 21
13.4138
  0
LINE
  8
0
 10
37.1863
 20
13.4138
 11
37.2453
 21
13.3312
  0
LINE
  8
0
 10
37.2453
 20
13.3312
 11
37.3043
 21
13.2443
  0
LINE
  8
0
 10
37.3043
 20
13.2443
 11
37.4568
 21
13.0101
  0
LINE
  8
0
 10
37.4568
 20
13.0101
 11
37.5505
 21
12.8612
  0
LINE
  8
0
 10
37.5505
 20
12.8612
 11
37.6443
 21
12.7066
  0
LINE
  8
0
 10
37.6443
 20
12.7066
 11
37.7383
 21
12.546
  0
LINE
  8
0
 10
37.7383
 20
12.546
 11
37.8293
 21
12.3829
  0
LINE
  8
0
 10
37.8293
 20
12.3829
 11
37.9145
 21
12.2197
  0
LINE
  8
0
 10
37.9145
 20
12.2197
 11
37.9939
 21
12.0564
  0
LINE
  8
0
 10
37.9939
 20
12.0564
 11
38.0673
 21
11.893
  0
LINE
  8
0
 10
38.0673
 20
11.893
 11
38.1468
 21
11.741
  0
LINE
  8
0
 10
38.1468
 20
11.741
 11
38.2203
 21
11.589
  0
LINE
  8
0
 10
38.2203
 20
11.589
 11
38.2878
 21
11.437
  0
LINE
  8
0
 10
38.2878
 20
11.437
 11
38.3493
 21
11.285
  0
LINE
  8
0
 10
38.3493
 20
11.285
 11
38.4049
 21
11.1349
  0
LINE
  8
0
 10
38.4049
 20
11.1349
 11
38.4548
 21
10.9877
  0
LINE
  8
0
 10
38.4548
 20
10.9877
 11
38.4989
 21
10.8434
  0
LINE
  8
0
 10
38.4989
 20
10.8434
 11
38.5373
 21
10.702
  0
LINE
  8
0
 10
38.5373
 20
10.702
 11
38.5473
 21
10.6797
  0
LINE
  8
0
 10
38.5473
 20
10.6797
 11
38.5545
 21
10.6587
  0
LINE
  8
0
 10
38.5545
 20
10.6587
 11
38.5588
 21
10.6392
  0
LINE
  8
0
 10
38.5588
 20
10.6392
 11
38.5618
 21
10.6027
  0
LINE
  8
0
 10
38.5618
 20
10.6027
 11
38.5663
 21
10.583
  0
LINE
  8
0
 10
38.5663
 20
10.583
 11
38.5738
 21
10.5617
  0
LINE
  8
0
 10
38.5738
 20
10.5617
 11
38.5843
 21
10.539
  0
LINE
  8
0
 10
38.5843
 20
10.539
 11
38.6457
 21
10.3566
  0
LINE
  8
0
 10
38.6457
 20
10.3566
 11
38.713
 21
10.2062
  0
LINE
  8
0
 10
38.713
 20
10.2062
 11
38.7862
 21
10.0881
  0
LINE
  8
0
 10
38.7862
 20
10.0881
 11
38.8653
 21
10.002
  0
LINE
  8
0
 10
38.8653
 20
10.002
 11
38.9551
 21
9.94073
  0
LINE
  8
0
 10
38.9551
 20
9.94073
 11
39.0595
 21
9.89699
  0
LINE
  8
0
 10
39.0595
 20
9.89699
 11
39.1786
 21
9.87074
  0
LINE
  8
0
 10
39.1786
 20
9.87074
 11
39.3123
 21
9.862
  0
LINE
  8
0
 10
39.3123
 20
9.862
 11
39.4657
 21
9.87587
  0
LINE
  8
0
 10
33.3863
 20
0.947998
 11
33.1797
 21
1.0493
  0
LINE
  8
0
 10
33.1797
 20
1.0493
 11
33.007
 21
1.16524
  0
LINE
  8
0
 10
33.007
 20
1.16524
 11
32.8682
 21
1.29581
  0
LINE
  8
0
 10
32.8682
 20
1.29581
 11
32.7633
 21
1.44099
  0
LINE
  8
0
 10
32.7633
 20
1.44099
 11
32.6863
 21
1.616
  0
LINE
  8
0
 10
32.6863
 20
1.616
 11
32.6313
 21
1.83499
  0
LINE
  8
0
 10
32.6313
 20
1.83499
 11
32.5983
 21
2.09799
  0
LINE
  8
0
 10
32.5983
 20
2.09799
 11
32.5873
 21
2.405
  0
LINE
  8
0
 10
32.5873
 20
2.405
 11
32.5873
 21
13.073
  0
LINE
  8
0
 10
32.5873
 20
13.073
 11
32.6031
 21
13.3966
  0
LINE
  8
0
 10
32.6031
 20
13.3966
 11
32.6508
 21
13.6865
  0
LINE
  8
0
 10
32.6508
 20
13.6865
 11
32.7302
 21
13.9426
  0
LINE
  8
0
 10
32.7302
 20
13.9426
 11
32.8413
 21
14.165
  0
LINE
  8
0
 10
32.8413
 20
14.165
 11
32.9857
 21
14.3526
  0
LINE
  8
0
 10
32.9857
 20
14.3526
 11
33.165
 21
14.5032
  0
LINE
  8
0
 10
33.165
 20
14.5032
 11
33.3792
 21
14.6171
  0
LINE
  8
0
 10
33.3792
 20
14.6171
 11
33.6283
 21
14.694
  0
LINE
  8
0
 10
33.6283
 20
14.694
 11
33.6283
 21
15.938
  0
LINE
  8
0
 10
33.6283
 20
15.938
 11
33.4373
 21
15.935
  0
LINE
  8
0
 10
33.4373
 20
15.935
 11
33.2403
 21
15.926
  0
LINE
  8
0
 10
33.2403
 20
15.926
 11
33.044
 21
15.9117
  0
LINE
  8
0
 10
33.044
 20
15.9117
 11
32.8533
 21
15.891
  0
LINE
  8
0
 10
32.8533
 20
15.891
 11
32.6302
 21
15.8501
  0
LINE
  8
0
 10
32.6302
 20
15.8501
 11
32.407
 21
15.7972
  0
LINE
  8
0
 10
32.407
 20
15.7972
 11
32.1837
 21
15.7326
  0
LINE
  8
0
 10
32.1837
 20
15.7326
 11
31.9603
 21
15.656
  0
LINE
  8
0
 10
31.9603
 20
15.656
 11
31.7328
 21
15.5666
  0
LINE
  8
0
 10
31.7328
 20
15.5666
 11
31.4965
 21
15.4625
  0
LINE
  8
0
 10
31.4965
 20
15.4625
 11
31.2513
 21
15.3436
  0
LINE
  8
0
 10
31.2513
 20
15.3436
 11
30.9973
 21
15.21
  0
LINE
  8
0
 10
30.9973
 20
15.21
 11
30.1334
 21
14.6447
  0
LINE
  8
0
 10
30.1334
 20
14.6447
 11
29.3738
 21
13.959
  0
LINE
  8
0
 10
29.3738
 20
13.959
 11
28.7184
 21
13.1527
  0
LINE
  8
0
 10
28.7184
 20
13.1527
 11
28.1673
 21
12.226
  0
LINE
  8
0
 10
28.1673
 20
12.226
 11
27.7307
 21
11.1969
  0
LINE
  8
0
 10
27.7307
 20
11.1969
 11
27.4188
 21
10.0825
  0
LINE
  8
0
 10
27.4188
 20
10.0825
 11
27.2317
 21
8.88287
  0
LINE
  8
0
 10
27.2317
 20
8.88287
 11
27.1693
 21
7.59799
  0
LINE
  8
0
 10
27.1693
 20
7.59799
 11
27.232
 21
6.37987
  0
LINE
  8
0
 10
27.232
 20
6.37987
 11
27.4203
 21
5.23949
  0
LINE
  8
0
 10
27.4203
 20
5.23949
 11
27.734
 21
4.17686
  0
LINE
  8
0
 10
27.734
 20
4.17686
 11
28.1733
 21
3.19199
  0
LINE
  8
0
 10
28.1733
 20
3.19199
 11
28.7278
 21
2.30449
  0
LINE
  8
0
 10
28.7278
 20
2.30449
 11
29.3875
 21
1.53299
  0
LINE
  8
0
 10
29.3875
 20
1.53299
 11
30.1523
 21
0.877487
  0
LINE
  8
0
 10
30.1523
 20
0.877487
 11
31.0223
 21
0.337997
  0
LINE
  8
0
 10
31.0223
 20
0.337997
 11
31.1277
 21
0.28093
  0
LINE
  8
0
 10
31.1277
 20
0.28093
 11
31.233
 21
0.226746
  0
LINE
  8
0
 10
31.233
 20
0.226746
 11
31.3382
 21
0.17543
  0
LINE
  8
0
 10
31.3382
 20
0.17543
 11
31.4433
 21
0.126999
  0
LINE
  8
0
 10
31.4433
 20
0.126999
 11
31.5497
 21
0.0829315
  0
LINE
  8
0
 10
31.5497
 20
0.0829315
 11
31.659
 21
0.0447388
  0
LINE
  8
0
 10
31.659
 20
0.0447388
 11
31.7712
 21
0.0124359
  0
LINE
  8
0
 10
31.7712
 20
0.0124359
 11
31.8863
 21
-0.0139923
  0
LINE
  8
0
 10
31.8863
 20
-0.0139923
 11
32.0827
 21
-0.0808105
  0
LINE
  8
0
 10
32.0827
 20
-0.0808105
 11
32.2748
 21
-0.140244
  0
LINE
  8
0
 10
32.2748
 20
-0.140244
 11
32.4627
 21
-0.192307
  0
LINE
  8
0
 10
32.4627
 20
-0.192307
 11
32.6463
 21
-0.237
  0
LINE
  8
0
 10
32.6463
 20
-0.237
 11
32.8217
 21
-0.2733
  0
LINE
  8
0
 10
32.8217
 20
-0.2733
 11
32.9838
 21
-0.29924
  0
LINE
  8
0
 10
32.9838
 20
-0.29924
 11
33.1327
 21
-0.314804
  0
LINE
  8
0
 10
33.1327
 20
-0.314804
 11
33.2683
 21
-0.319992
  0
LINE
  8
0
 10
33.2683
 20
-0.319992
 11
33.3863
 21
-0.319992
  0
LINE
  8
0
 10
33.3863
 20
-0.319992
 11
33.3863
 21
0.947998
  0
LINE
  8
0
 10
75.2708
 20
12.509
 11
75.5298
 21
13.073
  0
LINE
  8
0
 10
75.5298
 20
13.073
 11
75.6524
 21
13.2984
  0
LINE
  8
0
 10
75.6524
 20
13.2984
 11
75.7853
 21
13.5047
  0
LINE
  8
0
 10
75.7853
 20
13.5047
 11
75.9284
 21
13.6919
  0
LINE
  8
0
 10
75.9284
 20
13.6919
 11
76.0818
 21
13.86
  0
LINE
  8
0
 10
76.0818
 20
13.86
 11
76.2528
 21
14.0134
  0
LINE
  8
0
 10
76.2528
 20
14.0134
 11
76.4488
 21
14.1565
  0
LINE
  8
0
 10
76.4488
 20
14.1565
 11
76.6698
 21
14.2894
  0
LINE
  8
0
 10
76.6698
 20
14.2894
 11
77.1978
 21
14.553
  0
LINE
  8
0
 10
77.1978
 20
14.553
 11
77.262
 21
14.6007
  0
LINE
  8
0
 10
77.262
 20
14.6007
 11
77.3145
 21
14.6497
  0
LINE
  8
0
 10
77.3145
 20
14.6497
 11
77.3555
 21
14.7002
  0
LINE
  8
0
 10
77.3555
 20
14.7002
 11
77.3848
 21
14.752
  0
LINE
  8
0
 10
77.3848
 20
14.752
 11
77.4053
 21
14.8086
  0
LINE
  8
0
 10
77.4053
 20
14.8086
 11
77.42
 21
14.8725
  0
LINE
  8
0
 10
77.42
 20
14.8725
 11
77.4288
 21
14.9436
  0
LINE
  8
0
 10
77.4288
 20
14.9436
 11
77.4318
 21
15.022
  0
LINE
  8
0
 10
77.4318
 20
15.022
 11
77.4193
 21
15.1762
  0
LINE
  8
0
 10
77.4193
 20
15.1762
 11
77.3818
 21
15.3097
  0
LINE
  8
0
 10
77.3818
 20
15.3097
 11
77.3193
 21
15.4227
  0
LINE
  8
0
 10
77.3193
 20
15.4227
 11
77.2318
 21
15.515
  0
LINE
  8
0
 10
77.2318
 20
15.515
 11
77.1198
 21
15.5886
  0
LINE
  8
0
 10
77.1198
 20
15.5886
 11
76.9828
 21
15.6445
  0
LINE
  8
0
 10
76.9828
 20
15.6445
 11
76.8208
 21
15.6826
  0
LINE
  8
0
 10
76.8208
 20
15.6826
 11
76.6338
 21
15.703
  0
LINE
  8
0
 10
76.6338
 20
15.703
 11
73.7918
 21
15.68
  0
LINE
  8
0
 10
73.7918
 20
15.68
 11
73.509
 21
15.6712
  0
LINE
  8
0
 10
73.509
 20
15.6712
 11
73.2718
 21
15.6447
  0
LINE
  8
0
 10
73.2718
 20
15.6447
 11
73.08
 21
15.6007
  0
LINE
  8
0
 10
73.08
 20
15.6007
 11
72.9338
 21
15.539
  0
LINE
  8
0
 10
72.9338
 20
15.539
 11
72.8262
 21
15.4538
  0
LINE
  8
0
 10
72.8262
 20
15.4538
 11
72.7493
 21
15.3392
  0
LINE
  8
0
 10
72.7493
 20
15.3392
 11
72.7032
 21
15.1953
  0
LINE
  8
0
 10
72.7032
 20
15.1953
 11
72.6878
 21
15.022
  0
LINE
  8
0
 10
72.6878
 20
15.022
 11
72.6907
 21
14.9444
  0
LINE
  8
0
 10
72.6907
 20
14.9444
 11
72.6995
 21
14.8755
  0
LINE
  8
0
 10
72.6995
 20
14.8755
 11
72.7142
 21
14.8154
  0
LINE
  8
0
 10
72.7142
 20
14.8154
 11
72.7348
 21
14.764
  0
LINE
  8
0
 10
72.7348
 20
14.764
 11
72.7656
 21
14.717
  0
LINE
  8
0
 10
72.7656
 20
14.717
 11
72.811
 21
14.67
  0
LINE
  8
0
 10
72.811
 20
14.67
 11
72.8711
 21
14.623
  0
LINE
  8
0
 10
72.8711
 20
14.623
 11
72.9827
 21
14.5525
  0
LINE
  8
0
 10
72.9827
 20
14.5525
 11
73.0652
 21
14.5055
  0
LINE
  8
0
 10
73.0652
 20
14.5055
 11
73.1607
 21
14.4585
  0
LINE
  8
0
 10
73.1607
 20
14.4585
 11
73.2163
 21
14.435
  0
LINE
  8
0
 10
73.2163
 20
14.435
 11
73.3448
 21
14.388
  0
LINE
  8
0
 10
73.3448
 20
14.388
 11
73.5308
 21
14.3008
  0
LINE
  8
0
 10
73.5308
 20
14.3008
 11
73.6888
 21
14.2032
  0
LINE
  8
0
 10
73.6888
 20
14.2032
 11
73.8188
 21
14.0953
  0
LINE
  8
0
 10
73.8188
 20
14.0953
 11
73.9208
 21
13.977
  0
LINE
  8
0
 10
73.9208
 20
13.977
 11
73.9978
 21
13.8473
  0
LINE
  8
0
 10
73.9978
 20
13.8473
 11
74.0528
 21
13.7042
  0
LINE
  8
0
 10
74.0528
 20
13.7042
 11
74.0858
 21
13.5478
  0
LINE
  8
0
 10
74.0858
 20
13.5478
 11
74.0968
 21
13.378
  0
LINE
  8
0
 10
74.0968
 20
13.378
 11
74.0938
 21
13.284
  0
LINE
  8
0
 10
74.0938
 20
13.284
 11
74.0848
 21
13.19
  0
LINE
  8
0
 10
74.0848
 20
13.19
 11
74.0705
 21
13.0902
  0
LINE
  8
0
 10
74.0705
 20
13.0902
 11
74.0375
 21
12.9193
  0
LINE
  8
0
 10
74.0375
 20
12.9193
 11
74.008
 21
12.7958
  0
LINE
  8
0
 10
74.008
 20
12.7958
 11
73.9725
 21
12.6697
  0
LINE
  8
0
 10
73.9725
 20
12.6697
 11
73.9528
 21
12.6117
  0
LINE
  8
0
 10
73.9528
 20
12.6117
 11
73.9315
 21
12.5582
  0
LINE
  8
0
 10
73.9315
 20
12.5582
 11
72.7108
 21
9.808
  0
LINE
  8
0
 10
72.7108
 20
9.808
 11
73.3688
 21
8.30499
  0
LINE
  8
0
 10
73.3688
 20
8.30499
 11
75.2708
 21
12.509
  0
LINE
  8
0
 10
73.6261
 20
0.00880432
 11
73.839
 21
0.0352478
  0
LINE
  8
0
 10
73.839
 20
0.0352478
 11
74.0136
 21
0.0792999
  0
LINE
  8
0
 10
74.0136
 20
0.0792999
 11
74.1498
 21
0.140991
  0
LINE
  8
0
 10
74.1498
 20
0.140991
 11
74.2526
 21
0.223236
  0
LINE
  8
0
 10
74.2526
 20
0.223236
 11
74.326
 21
0.328995
  0
LINE
  8
0
 10
74.326
 20
0.328995
 11
74.3701
 21
0.458237
  0
LINE
  8
0
 10
74.3701
 20
0.458237
 11
74.3848
 21
0.610992
  0
LINE
  8
0
 10
74.3848
 20
0.610992
 11
74.376
 21
0.733368
  0
LINE
  8
0
 10
74.376
 20
0.733368
 11
74.3495
 21
0.842499
  0
LINE
  8
0
 10
74.3495
 20
0.842499
 11
74.3055
 21
0.93837
  0
LINE
  8
0
 10
74.3055
 20
0.93837
 11
74.2438
 21
1.021
  0
LINE
  8
0
 10
74.2438
 20
1.021
 11
74.1664
 21
1.09087
  0
LINE
  8
0
 10
74.1664
 20
1.09087
 11
74.074
 21
1.14749
  0
LINE
  8
0
 10
74.074
 20
1.14749
 11
73.9668
 21
1.19087
  0
LINE
  8
0
 10
73.9668
 20
1.19087
 11
73.8448
 21
1.22099
  0
LINE
  8
0
 10
73.8448
 20
1.22099
 11
73.7775
 21
1.24174
  0
LINE
  8
0
 10
73.7775
 20
1.24174
 11
73.654
 21
1.271
  0
LINE
  8
0
 10
73.654
 20
1.271
 11
73.5868
 21
1.29199
  0
LINE
  8
0
 10
73.5868
 20
1.29199
 11
73.4056
 21
1.35349
  0
LINE
  8
0
 10
73.4056
 20
1.35349
 11
73.261
 21
1.42099
  0
LINE
  8
0
 10
73.261
 20
1.42099
 11
73.1531
 21
1.49449
  0
LINE
  8
0
 10
73.1531
 20
1.49449
 11
73.0818
 21
1.57399
  0
LINE
  8
0
 10
73.0818
 20
1.57399
 11
73.0354
 21
1.67418
  0
LINE
  8
0
 10
73.0354
 20
1.67418
 11
73.0023
 21
1.80974
  0
LINE
  8
0
 10
73.0023
 20
1.80974
 11
72.9824
 21
1.98068
  0
LINE
  8
0
 10
72.9824
 20
1.98068
 11
72.9758
 21
2.187
  0
LINE
  8
0
 10
72.9758
 20
2.187
 11
72.9758
 21
7.20299
  0
LINE
  8
0
 10
72.9758
 20
7.20299
 11
70.2748
 21
13.35
  0
LINE
  8
0
 10
70.2748
 20
13.35
 11
70.2718
 21
13.376
  0
LINE
  8
0
 10
70.2718
 20
13.376
 11
70.2565
 21
13.4252
  0
LINE
  8
0
 10
70.2565
 20
13.4252
 11
70.2485
 21
13.441
  0
LINE
  8
0
 10
70.2485
 20
13.441
 11
70.239
 21
13.4552
  0
LINE
  8
0
 10
70.239
 20
13.4552
 11
70.2278
 21
13.468
  0
LINE
  8
0
 10
70.2278
 20
13.468
 11
70.2248
 21
13.512
  0
LINE
  8
0
 10
70.2248
 20
13.512
 11
70.211
 21
13.5682
  0
LINE
  8
0
 10
70.211
 20
13.5682
 11
70.2055
 21
13.6092
  0
LINE
  8
0
 10
70.2055
 20
13.6092
 11
70.2048
 21
13.632
  0
LINE
  8
0
 10
70.2048
 20
13.632
 11
70.1838
 21
13.7057
  0
LINE
  8
0
 10
70.1838
 20
13.7057
 11
70.1688
 21
13.785
  0
LINE
  8
0
 10
70.1688
 20
13.785
 11
70.1585
 21
13.8892
  0
LINE
  8
0
 10
70.1585
 20
13.8892
 11
70.1578
 21
13.915
  0
LINE
  8
0
 10
70.1578
 20
13.915
 11
70.1614
 21
13.9732
  0
LINE
  8
0
 10
70.1614
 20
13.9732
 11
70.1723
 21
14.03
  0
LINE
  8
0
 10
70.1723
 20
14.03
 11
70.1904
 21
14.0852
  0
LINE
  8
0
 10
70.1904
 20
14.0852
 11
70.2158
 21
14.139
  0
LINE
  8
0
 10
70.2158
 20
14.139
 11
70.2475
 21
14.1897
  0
LINE
  8
0
 10
70.2475
 20
14.1897
 11
70.2835
 21
14.236
  0
LINE
  8
0
 10
70.2835
 20
14.236
 11
70.324
 21
14.2777
  0
LINE
  8
0
 10
70.324
 20
14.2777
 11
70.3688
 21
14.315
  0
LINE
  8
0
 10
70.3688
 20
14.315
 11
70.6978
 21
14.504
  0
LINE
  8
0
 10
70.6978
 20
14.504
 11
70.7747
 21
14.5644
  0
LINE
  8
0
 10
70.7747
 20
14.5644
 11
70.8413
 21
14.6277
  0
LINE
  8
0
 10
70.8413
 20
14.6277
 11
70.8977
 21
14.6939
  0
LINE
  8
0
 10
70.8977
 20
14.6939
 11
70.9438
 21
14.763
  0
LINE
  8
0
 10
70.9438
 20
14.763
 11
70.9801
 21
14.835
  0
LINE
  8
0
 10
70.9801
 20
14.835
 11
71.006
 21
14.91
  0
LINE
  8
0
 10
71.006
 20
14.91
 11
71.0216
 21
14.988
  0
LINE
  8
0
 10
71.0216
 20
14.988
 11
71.0268
 21
15.069
  0
LINE
  8
0
 10
71.0268
 20
15.069
 11
71.0128
 21
15.2217
  0
LINE
  8
0
 10
71.0128
 20
15.2217
 11
70.9708
 21
15.351
  0
LINE
  8
0
 10
70.9708
 20
15.351
 11
70.9008
 21
15.4567
  0
LINE
  8
0
 10
70.9008
 20
15.4567
 11
70.8028
 21
15.539
  0
LINE
  8
0
 10
70.8028
 20
15.539
 11
70.6759
 21
15.6021
  0
LINE
  8
0
 10
70.6759
 20
15.6021
 11
70.5183
 21
15.6505
  0
LINE
  8
0
 10
70.5183
 20
15.6505
 11
70.3299
 21
15.6841
  0
LINE
  8
0
 10
70.3299
 20
15.6841
 11
70.1108
 21
15.703
  0
LINE
  8
0
 10
70.1108
 20
15.703
 11
64.4738
 21
15.68
  0
LINE
  8
0
 10
64.4738
 20
15.68
 11
64.265
 21
15.6712
  0
LINE
  8
0
 10
64.265
 20
15.6712
 11
64.0855
 21
15.6447
  0
LINE
  8
0
 10
64.0855
 20
15.6447
 11
63.9355
 21
15.6007
  0
LINE
  8
0
 10
63.9355
 20
15.6007
 11
63.8148
 21
15.539
  0
LINE
  8
0
 10
63.8148
 20
15.539
 11
63.7225
 21
15.4582
  0
LINE
  8
0
 10
63.7225
 20
15.4582
 11
63.6565
 21
15.357
  0
LINE
  8
0
 10
63.6565
 20
15.357
 11
63.617
 21
15.2352
  0
LINE
  8
0
 10
63.617
 20
15.2352
 11
63.6038
 21
15.093
  0
LINE
  8
0
 10
63.6038
 20
15.093
 11
63.6052
 21
15.0195
  0
LINE
  8
0
 10
63.6052
 20
15.0195
 11
63.6095
 21
14.954
  0
LINE
  8
0
 10
63.6095
 20
14.954
 11
63.6167
 21
14.8965
  0
LINE
  8
0
 10
63.6167
 20
14.8965
 11
63.6268
 21
14.847
  0
LINE
  8
0
 10
63.6268
 20
14.847
 11
63.6432
 21
14.8012
  0
LINE
  8
0
 10
63.6432
 20
14.8012
 11
63.6683
 21
14.7537
  0
LINE
  8
0
 10
63.6683
 20
14.7537
 11
63.7022
 21
14.7047
  0
LINE
  8
0
 10
63.7022
 20
14.7047
 11
63.7448
 21
14.654
  0
LINE
  8
0
 10
63.7448
 20
14.654
 11
63.7712
 21
14.6272
  0
LINE
  8
0
 10
63.7712
 20
14.6272
 11
63.8035
 21
14.5987
  0
LINE
  8
0
 10
63.8035
 20
14.5987
 11
63.8417
 21
14.5687
  0
LINE
  8
0
 10
63.8417
 20
14.5687
 11
64.1873
 21
14.335
  0
LINE
  8
0
 10
64.1873
 20
14.335
 11
64.268
 21
14.272
  0
LINE
  8
0
 10
64.268
 20
14.272
 11
64.3398
 21
14.206
  0
LINE
  8
0
 10
64.3398
 20
14.206
 11
64.4028
 21
14.137
  0
LINE
  8
0
 10
64.4028
 20
14.137
 11
64.4598
 21
14.0607
  0
LINE
  8
0
 10
64.4598
 20
14.0607
 11
64.514
 21
13.9727
  0
LINE
  8
0
 10
64.514
 20
13.9727
 11
64.5653
 21
13.8732
  0
LINE
  8
0
 10
64.5653
 20
13.8732
 11
64.6138
 21
13.762
  0
LINE
  8
0
 10
64.6138
 20
13.762
 11
67.8558
 21
6.04999
  0
LINE
  8
0
 10
67.8558
 20
6.04999
 11
67.8558
 21
2.159
  0
LINE
  8
0
 10
67.8558
 20
2.159
 11
67.8499
 21
1.96411
  0
LINE
  8
0
 10
67.8499
 20
1.96411
 11
67.8323
 21
1.8015
  0
LINE
  8
0
 10
67.8323
 20
1.8015
 11
67.8029
 21
1.67111
  0
LINE
  8
0
 10
67.8029
 20
1.67111
 11
67.7618
 21
1.573
  0
LINE
  8
0
 10
67.7618
 20
1.573
 11
67.6957
 21
1.49387
  0
LINE
  8
0
 10
67.6957
 20
1.49387
 11
67.5915
 21
1.42049
  0
LINE
  8
0
 10
67.5915
 20
1.42049
 11
67.4492
 21
1.35287
  0
LINE
  8
0
 10
67.4492
 20
1.35287
 11
67.2688
 21
1.29099
  0
LINE
  8
0
 10
67.2688
 20
1.29099
 11
67.2438
 21
1.28018
  0
LINE
  8
0
 10
67.2438
 20
1.28018
 11
67.2158
 21
1.27074
  0
LINE
  8
0
 10
67.2158
 20
1.27074
 11
67.1848
 21
1.26268
  0
LINE
  8
0
 10
67.1848
 20
1.26268
 11
67.0323
 21
1.23181
  0
LINE
  8
0
 10
67.0323
 20
1.23181
 11
66.8647
 21
1.19087
  0
LINE
  8
0
 10
66.8647
 20
1.19087
 11
66.7573
 21
1.14749
  0
LINE
  8
0
 10
66.7573
 20
1.14749
 11
66.6647
 21
1.09087
  0
LINE
  8
0
 10
66.6647
 20
1.09087
 11
66.5868
 21
1.021
  0
LINE
  8
0
 10
66.5868
 20
1.021
 11
66.5255
 21
0.939804
  0
LINE
  8
0
 10
66.5255
 20
0.939804
 11
66.4818
 21
0.848236
  0
LINE
  8
0
 10
66.4818
 20
0.848236
 11
66.4555
 21
0.746307
  0
LINE
  8
0
 10
66.4555
 20
0.746307
 11
66.4468
 21
0.633987
  0
LINE
  8
0
 10
66.4468
 20
0.633987
 11
66.4622
 21
0.480499
  0
LINE
  8
0
 10
66.4622
 20
0.480499
 11
66.5083
 21
0.348999
  0
LINE
  8
0
 10
66.5083
 20
0.348999
 11
66.5852
 21
0.239487
  0
LINE
  8
0
 10
66.5852
 20
0.239487
 11
66.6928
 21
0.151993
  0
LINE
  8
0
 10
66.6928
 20
0.151993
 11
66.8331
 21
0.085495
  0
LINE
  8
0
 10
66.8331
 20
0.085495
 11
67.007
 21
0.0379944
  0
LINE
  8
0
 10
67.007
 20
0.0379944
 11
67.2146
 21
0.00949097
  0
LINE
  8
0
 10
67.2146
 20
0.00949097
 11
67.4558
 21
0
  0
LINE
  8
0
 10
67.4558
 20
0
 11
73.3748
 21
0
  0
LINE
  8
0
 10
73.3748
 20
0
 11
73.6261
 21
0.00880432
  0
LINE
  8
0
 10
7.97063
 20
0.009552
 11
8.14494
 21
0.0382385
  0
LINE
  8
0
 10
8.14494
 20
0.0382385
 11
8.29413
 21
0.0860596
  0
LINE
  8
0
 10
8.29413
 20
0.0860596
 11
8.41818
 21
0.153
  0
LINE
  8
0
 10
8.41818
 20
0.153
 11
8.51619
 21
0.238998
  0
LINE
  8
0
 10
8.51619
 20
0.238998
 11
8.58618
 21
0.343994
  0
LINE
  8
0
 10
8.58618
 20
0.343994
 11
8.62819
 21
0.467987
  0
LINE
  8
0
 10
8.62819
 20
0.467987
 11
8.64218
 21
0.610992
  0
LINE
  8
0
 10
8.64218
 20
0.610992
 11
8.63481
 21
0.71286
  0
LINE
  8
0
 10
8.63481
 20
0.71286
 11
8.61269
 21
0.807495
  0
LINE
  8
0
 10
8.61269
 20
0.807495
 11
8.57581
 21
0.894867
  0
LINE
  8
0
 10
8.57581
 20
0.894867
 11
8.52419
 21
0.974991
  0
LINE
  8
0
 10
8.52419
 20
0.974991
 11
8.45825
 21
1.04631
  0
LINE
  8
0
 10
8.45825
 20
1.04631
 11
8.37744
 21
1.10724
  0
LINE
  8
0
 10
8.37744
 20
1.10724
 11
8.28175
 21
1.15781
  0
LINE
  8
0
 10
8.28175
 20
1.15781
 11
8.17119
 21
1.198
  0
LINE
  8
0
 10
8.17119
 20
1.198
 11
8.07994
 21
1.224
  0
LINE
  8
0
 10
8.07994
 20
1.224
 11
7.99419
 21
1.256
  0
LINE
  8
0
 10
7.99419
 20
1.256
 11
7.87794
 21
1.30267
  0
LINE
  8
0
 10
7.87794
 20
1.30267
 11
7.84219
 21
1.31499
  0
LINE
  8
0
 10
7.84219
 20
1.31499
 11
7.72519
 21
1.375
  0
LINE
  8
0
 10
7.72519
 20
1.375
 11
7.63319
 21
1.43799
  0
LINE
  8
0
 10
7.63319
 20
1.43799
 11
7.56619
 21
1.504
  0
LINE
  8
0
 10
7.56619
 20
1.504
 11
7.52419
 21
1.573
  0
LINE
  8
0
 10
7.52419
 20
1.573
 11
7.49838
 21
1.65811
  0
LINE
  8
0
 10
7.49838
 20
1.65811
 11
7.47993
 21
1.77249
  0
LINE
  8
0
 10
7.47993
 20
1.77249
 11
7.46887
 21
1.91612
  0
LINE
  8
0
 10
7.46887
 20
1.91612
 11
7.46519
 21
2.08899
  0
LINE
  8
0
 10
7.46519
 20
2.08899
 11
7.46519
 21
13.528
  0
LINE
  8
0
 10
7.46519
 20
13.528
 11
7.46887
 21
13.6904
  0
LINE
  8
0
 10
7.46887
 20
13.6904
 11
7.47993
 21
13.8265
  0
LINE
  8
0
 10
7.47993
 20
13.8265
 11
7.49838
 21
13.9364
  0
LINE
  8
0
 10
7.49838
 20
13.9364
 11
7.52419
 21
14.02
  0
LINE
  8
0
 10
7.52419
 20
14.02
 11
7.56619
 21
14.089
  0
LINE
  8
0
 10
7.56619
 20
14.089
 11
7.63319
 21
14.155
  0
LINE
  8
0
 10
7.63319
 20
14.155
 11
7.72519
 21
14.218
  0
LINE
  8
0
 10
7.72519
 20
14.218
 11
7.84219
 21
14.278
  0
LINE
  8
0
 10
7.84219
 20
14.278
 11
7.95393
 21
14.3192
  0
LINE
  8
0
 10
7.95393
 20
14.3192
 11
8.03638
 21
14.3532
  0
LINE
  8
0
 10
8.03638
 20
14.3532
 11
8.12488
 21
14.3827
  0
LINE
  8
0
 10
8.12488
 20
14.3827
 11
8.17119
 21
14.395
  0
LINE
  8
0
 10
8.17119
 20
14.395
 11
8.28175
 21
14.4397
  0
LINE
  8
0
 10
8.28175
 20
14.4397
 11
8.37744
 21
14.4957
  0
LINE
  8
0
 10
8.37744
 20
14.4957
 11
8.45825
 21
14.5632
  0
LINE
  8
0
 10
8.45825
 20
14.5632
 11
8.52419
 21
14.642
  0
LINE
  8
0
 10
8.52419
 20
14.642
 11
8.57581
 21
14.731
  0
LINE
  8
0
 10
8.57581
 20
14.731
 11
8.61269
 21
14.828
  0
LINE
  8
0
 10
8.61269
 20
14.828
 11
8.63481
 21
14.933
  0
LINE
  8
0
 10
8.63481
 20
14.933
 11
8.64218
 21
15.046
  0
LINE
  8
0
 10
8.64218
 20
15.046
 11
8.62894
 21
15.1983
  0
LINE
  8
0
 10
8.62894
 20
15.1983
 11
8.58919
 21
15.3272
  0
LINE
  8
0
 10
8.58919
 20
15.3272
 11
8.52293
 21
15.4328
  0
LINE
  8
0
 10
8.52293
 20
15.4328
 11
8.43019
 21
15.515
  0
LINE
  8
0
 10
8.43019
 20
15.515
 11
8.30949
 21
15.5796
  0
LINE
  8
0
 10
8.30949
 20
15.5796
 11
8.15944
 21
15.6325
  0
LINE
  8
0
 10
8.15944
 20
15.6325
 11
7.98
 21
15.6736
  0
LINE
  8
0
 10
7.98
 20
15.6736
 11
7.77119
 21
15.703
  0
LINE
  8
0
 10
7.77119
 20
15.703
 11
2.34718
 21
15.703
  0
LINE
  8
0
 10
2.34718
 20
15.703
 11
2.04219
 21
15.68
  0
LINE
  8
0
 10
2.04219
 20
15.68
 11
1.84319
 21
15.6704
  0
LINE
  8
0
 10
1.84319
 20
15.6704
 11
1.66919
 21
15.6417
  0
LINE
  8
0
 10
1.66919
 20
15.6417
 11
1.52019
 21
15.5939
  0
LINE
  8
0
 10
1.52019
 20
15.5939
 11
1.39619
 21
15.527
  0
LINE
  8
0
 10
1.39619
 20
15.527
 11
1.29863
 21
15.4399
  0
LINE
  8
0
 10
1.29863
 20
15.4399
 11
1.22894
 21
15.3307
  0
LINE
  8
0
 10
1.22894
 20
15.3307
 11
1.18712
 21
15.1994
  0
LINE
  8
0
 10
1.18712
 20
15.1994
 11
1.17319
 21
15.046
  0
LINE
  8
0
 10
1.17319
 20
15.046
 11
1.1805
 21
14.933
  0
LINE
  8
0
 10
1.1805
 20
14.933
 11
1.20244
 21
14.828
  0
LINE
  8
0
 10
1.20244
 20
14.828
 11
1.239
 21
14.731
  0
LINE
  8
0
 10
1.239
 20
14.731
 11
1.29019
 21
14.642
  0
LINE
  8
0
 10
1.29019
 20
14.642
 11
1.35651
 21
14.5632
  0
LINE
  8
0
 10
1.35651
 20
14.5632
 11
1.43744
 21
14.4957
  0
LINE
  8
0
 10
1.43744
 20
14.4957
 11
1.533
 21
14.4397
  0
LINE
  8
0
 10
1.533
 20
14.4397
 11
1.64319
 21
14.395
  0
LINE
  8
0
 10
1.64319
 20
14.395
 11
1.73419
 21
14.3687
  0
LINE
  8
0
 10
1.73419
 20
14.3687
 11
1.77744
 21
14.3532
  0
LINE
  8
0
 10
1.77744
 20
14.3532
 11
1.89819
 21
14.304
  0
LINE
  8
0
 10
1.89819
 20
14.304
 11
1.97119
 21
14.278
  0
LINE
  8
0
 10
1.97119
 20
14.278
 11
2.08812
 21
14.218
  0
LINE
  8
0
 10
2.08812
 20
14.218
 11
2.17993
 21
14.155
  0
LINE
  8
0
 10
2.17993
 20
14.155
 11
2.24663
 21
14.089
  0
LINE
  8
0
 10
2.24663
 20
14.089
 11
2.28819
 21
14.02
  0
LINE
  8
0
 10
2.28819
 20
14.02
 11
2.314
 21
13.9378
  0
LINE
  8
0
 10
2.314
 20
13.9378
 11
2.33244
 21
13.8322
  0
LINE
  8
0
 10
2.33244
 20
13.8322
 11
2.34351
 21
13.7033
  0
LINE
  8
0
 10
2.34351
 20
13.7033
 11
2.34718
 21
13.551
  0
LINE
  8
0
 10
2.34718
 20
13.551
 11
2.34718
 21
2.06499
  0
LINE
  8
0
 10
2.34718
 20
2.06499
 11
2.34351
 21
1.90262
  0
LINE
  8
0
 10
2.34351
 20
1.90262
 11
2.33244
 21
1.76649
  0
LINE
  8
0
 10
2.33244
 20
1.76649
 11
2.314
 21
1.65662
  0
LINE
  8
0
 10
2.314
 20
1.65662
 11
2.28819
 21
1.573
  0
LINE
  8
0
 10
2.28819
 20
1.573
 11
2.24663
 21
1.504
  0
LINE
  8
0
 10
2.24663
 20
1.504
 11
2.17993
 21
1.43799
  0
LINE
  8
0
 10
2.17993
 20
1.43799
 11
2.08812
 21
1.375
  0
LINE
  8
0
 10
2.08812
 20
1.375
 11
1.97119
 21
1.31499
  0
LINE
  8
0
 10
1.97119
 20
1.31499
 11
1.85944
 21
1.27318
  0
LINE
  8
0
 10
1.85944
 20
1.27318
 11
1.77744
 21
1.23924
  0
LINE
  8
0
 10
1.77744
 20
1.23924
 11
1.68944
 21
1.21024
  0
LINE
  8
0
 10
1.68944
 20
1.21024
 11
1.64319
 21
1.198
  0
LINE
  8
0
 10
1.64319
 20
1.198
 11
1.533
 21
1.15781
  0
LINE
  8
0
 10
1.533
 20
1.15781
 11
1.43744
 21
1.10724
  0
LINE
  8
0
 10
1.43744
 20
1.10724
 11
1.35651
 21
1.04631
  0
LINE
  8
0
 10
1.35651
 20
1.04631
 11
1.29019
 21
0.974991
  0
LINE
  8
0
 10
1.29019
 20
0.974991
 11
1.239
 21
0.894867
  0
LINE
  8
0
 10
1.239
 20
0.894867
 11
1.20244
 21
0.807495
  0
LINE
  8
0
 10
1.20244
 20
0.807495
 11
1.1805
 21
0.71286
  0
LINE
  8
0
 10
1.1805
 20
0.71286
 11
1.17319
 21
0.610992
  0
LINE
  8
0
 10
1.17319
 20
0.610992
 11
1.18637
 21
0.467987
  0
LINE
  8
0
 10
1.18637
 20
0.467987
 11
1.22594
 21
0.343994
  0
LINE
  8
0
 10
1.22594
 20
0.343994
 11
1.29187
 21
0.238998
  0
LINE
  8
0
 10
1.29187
 20
0.238998
 11
1.38419
 21
0.153
  0
LINE
  8
0
 10
1.38419
 20
0.153
 11
1.50481
 21
0.0860596
  0
LINE
  8
0
 10
1.50481
 20
0.0860596
 11
1.65469
 21
0.0382385
  0
LINE
  8
0
 10
1.65469
 20
0.0382385
 11
1.83382
 21
0.009552
  0
LINE
  8
0
 10
1.83382
 20
0.009552
 11
2.04219
 21
0
  0
LINE
  8
0
 10
2.04219
 20
0
 11
7.77119
 21
0
  0
LINE
  8
0
 10
7.77119
 20
0
 11
7.97063
 21
0.009552
  0
LINE
  8
0
 10
-18.5105
 20
0.009552
 11
-18.3361
 21
0.0382385
  0
LINE
  8
0
 10
-18.3361
 20
0.0382385
 11
-18.187
 21
0.0860596
  0
LINE
  8
0
 10
-18.187
 20
0.0860596
 11
-18.0629
 21
0.153
  0
LINE
  8
0
 10
-18.0629
 20
0.153
 11
-17.9649
 21
0.238998
  0
LINE
  8
0
 10
-17.9649
 20
0.238998
 11
-17.8949
 21
0.343994
  0
LINE
  8
0
 10
-17.8949
 20
0.343994
 11
-17.8529
 21
0.467987
  0
LINE
  8
0
 10
-17.8529
 20
0.467987
 11
-17.8389
 21
0.610992
  0
LINE
  8
0
 10
-17.8389
 20
0.610992
 11
-17.8463
 21
0.71286
  0
LINE
  8
0
 10
-17.8463
 20
0.71286
 11
-17.8684
 21
0.807495
  0
LINE
  8
0
 10
-17.8684
 20
0.807495
 11
-17.9053
 21
0.894867
  0
LINE
  8
0
 10
-17.9053
 20
0.894867
 11
-17.9569
 21
0.974991
  0
LINE
  8
0
 10
-17.9569
 20
0.974991
 11
-18.0228
 21
1.04631
  0
LINE
  8
0
 10
-18.0228
 20
1.04631
 11
-18.1036
 21
1.10724
  0
LINE
  8
0
 10
-18.1036
 20
1.10724
 11
-18.1993
 21
1.15781
  0
LINE
  8
0
 10
-18.1993
 20
1.15781
 11
-18.3099
 21
1.198
  0
LINE
  8
0
 10
-18.3099
 20
1.198
 11
-18.4011
 21
1.224
  0
LINE
  8
0
 10
-18.4011
 20
1.224
 11
-18.4869
 21
1.256
  0
LINE
  8
0
 10
-18.4869
 20
1.256
 11
-18.6031
 21
1.30267
  0
LINE
  8
0
 10
-18.6031
 20
1.30267
 11
-18.6389
 21
1.31499
  0
LINE
  8
0
 10
-18.6389
 20
1.31499
 11
-18.7559
 21
1.375
  0
LINE
  8
0
 10
-18.7559
 20
1.375
 11
-18.8479
 21
1.43799
  0
LINE
  8
0
 10
-18.8479
 20
1.43799
 11
-18.9149
 21
1.504
  0
LINE
  8
0
 10
-18.9149
 20
1.504
 11
-18.9569
 21
1.573
  0
LINE
  8
0
 10
-18.9569
 20
1.573
 11
-18.9827
 21
1.65811
  0
LINE
  8
0
 10
-18.9827
 20
1.65811
 11
-19.0011
 21
1.77249
  0
LINE
  8
0
 10
-19.0011
 20
1.77249
 11
-19.0122
 21
1.91612
  0
LINE
  8
0
 10
-19.0122
 20
1.91612
 11
-19.0159
 21
2.08899
  0
LINE
  8
0
 10
-19.0159
 20
2.08899
 11
-19.0159
 21
13.528
  0
LINE
  8
0
 10
-19.0159
 20
13.528
 11
-19.0122
 21
13.6904
  0
LINE
  8
0
 10
-19.0122
 20
13.6904
 11
-19.0011
 21
13.8265
  0
LINE
  8
0
 10
-19.0011
 20
13.8265
 11
-18.9827
 21
13.9364
  0
LINE
  8
0
 10
-18.9827
 20
13.9364
 11
-18.9569
 21
14.02
  0
LINE
  8
0
 10
-18.9569
 20
14.02
 11
-18.9149
 21
14.089
  0
LINE
  8
0
 10
-18.9149
 20
14.089
 11
-18.8479
 21
14.155
  0
LINE
  8
0
 10
-18.8479
 20
14.155
 11
-18.7559
 21
14.218
  0
LINE
  8
0
 10
-18.7559
 20
14.218
 11
-18.6389
 21
14.278
  0
LINE
  8
0
 10
-18.6389
 20
14.278
 11
-18.5271
 21
14.3192
  0
LINE
  8
0
 10
-18.5271
 20
14.3192
 11
-18.4447
 21
14.3532
  0
LINE
  8
0
 10
-18.4447
 20
14.3532
 11
-18.3562
 21
14.3827
  0
LINE
  8
0
 10
-18.3562
 20
14.3827
 11
-18.3099
 21
14.395
  0
LINE
  8
0
 10
-18.3099
 20
14.395
 11
-18.1993
 21
14.4397
  0
LINE
  8
0
 10
-18.1993
 20
14.4397
 11
-18.1036
 21
14.4957
  0
LINE
  8
0
 10
-18.1036
 20
14.4957
 11
-18.0228
 21
14.5632
  0
LINE
  8
0
 10
-18.0228
 20
14.5632
 11
-17.9569
 21
14.642
  0
LINE
  8
0
 10
-17.9569
 20
14.642
 11
-17.9053
 21
14.731
  0
LINE
  8
0
 10
-17.9053
 20
14.731
 11
-17.8684
 21
14.828
  0
LINE
  8
0
 10
-17.8684
 20
14.828
 11
-17.8463
 21
14.933
  0
LINE
  8
0
 10
-17.8463
 20
14.933
 11
-17.8389
 21
15.046
  0
LINE
  8
0
 10
-17.8389
 20
15.046
 11
-17.8521
 21
15.1983
  0
LINE
  8
0
 10
-17.8521
 20
15.1983
 11
-17.8919
 21
15.3272
  0
LINE
  8
0
 10
-17.8919
 20
15.3272
 11
-17.9581
 21
15.4328
  0
LINE
  8
0
 10
-17.9581
 20
15.4328
 11
-18.0509
 21
15.515
  0
LINE
  8
0
 10
-18.0509
 20
15.515
 11
-18.1716
 21
15.5796
  0
LINE
  8
0
 10
-18.1716
 20
15.5796
 11
-18.3216
 21
15.6325
  0
LINE
  8
0
 10
-18.3216
 20
15.6325
 11
-18.5011
 21
15.6736
  0
LINE
  8
0
 10
-18.5011
 20
15.6736
 11
-18.7099
 21
15.703
  0
LINE
  8
0
 10
-18.7099
 20
15.703
 11
-24.1339
 21
15.703
  0
LINE
  8
0
 10
-24.1339
 20
15.703
 11
-24.4389
 21
15.68
  0
LINE
  8
0
 10
-24.4389
 20
15.68
 11
-24.6379
 21
15.6704
  0
LINE
  8
0
 10
-24.6379
 20
15.6704
 11
-24.8119
 21
15.6417
  0
LINE
  8
0
 10
-24.8119
 20
15.6417
 11
-24.9609
 21
15.5939
  0
LINE
  8
0
 10
-24.9609
 20
15.5939
 11
-25.0849
 21
15.527
  0
LINE
  8
0
 10
-25.0849
 20
15.527
 11
-25.1824
 21
15.4399
  0
LINE
  8
0
 10
-25.1824
 20
15.4399
 11
-25.2521
 21
15.3307
  0
LINE
  8
0
 10
-25.2521
 20
15.3307
 11
-25.294
 21
15.1994
  0
LINE
  8
0
 10
-25.294
 20
15.1994
 11
-25.3079
 21
15.046
  0
LINE
  8
0
 10
-25.3079
 20
15.046
 11
-25.3006
 21
14.933
  0
LINE
  8
0
 10
-25.3006
 20
14.933
 11
-25.2786
 21
14.828
  0
LINE
  8
0
 10
-25.2786
 20
14.828
 11
-25.2421
 21
14.731
  0
LINE
  8
0
 10
-25.2421
 20
14.731
 11
-25.1909
 21
14.642
  0
LINE
  8
0
 10
-25.1909
 20
14.642
 11
-25.1246
 21
14.5632
  0
LINE
  8
0
 10
-25.1246
 20
14.5632
 11
-25.0436
 21
14.4957
  0
LINE
  8
0
 10
-25.0436
 20
14.4957
 11
-24.9481
 21
14.4397
  0
LINE
  8
0
 10
-24.9481
 20
14.4397
 11
-24.8379
 21
14.395
  0
LINE
  8
0
 10
-24.8379
 20
14.395
 11
-24.7469
 21
14.3687
  0
LINE
  8
0
 10
-24.7469
 20
14.3687
 11
-24.7036
 21
14.3532
  0
LINE
  8
0
 10
-24.7036
 20
14.3532
 11
-24.5829
 21
14.304
  0
LINE
  8
0
 10
-24.5829
 20
14.304
 11
-24.5099
 21
14.278
  0
LINE
  8
0
 10
-24.5099
 20
14.278
 11
-24.393
 21
14.218
  0
LINE
  8
0
 10
-24.393
 20
14.218
 11
-24.3011
 21
14.155
  0
LINE
  8
0
 10
-24.3011
 20
14.155
 11
-24.2345
 21
14.089
  0
LINE
  8
0
 10
-24.2345
 20
14.089
 11
-24.1929
 21
14.02
  0
LINE
  8
0
 10
-24.1929
 20
14.02
 11
-24.1671
 21
13.9378
  0
LINE
  8
0
 10
-24.1671
 20
13.9378
 11
-24.1486
 21
13.8322
  0
LINE
  8
0
 10
-24.1486
 20
13.8322
 11
-24.1376
 21
13.7033
  0
LINE
  8
0
 10
-24.1376
 20
13.7033
 11
-24.1339
 21
13.551
  0
LINE
  8
0
 10
-24.1339
 20
13.551
 11
-24.1339
 21
2.06499
  0
LINE
  8
0
 10
-24.1339
 20
2.06499
 11
-24.1376
 21
1.90262
  0
LINE
  8
0
 10
-24.1376
 20
1.90262
 11
-24.1486
 21
1.76649
  0
LINE
  8
0
 10
-24.1486
 20
1.76649
 11
-24.1671
 21
1.65662
  0
LINE
  8
0
 10
-24.1671
 20
1.65662
 11
-24.1929
 21
1.573
  0
LINE
  8
0
 10
-24.1929
 20
1.573
 11
-24.2345
 21
1.504
  0
LINE
  8
0
 10
-24.2345
 20
1.504
 11
-24.3011
 21
1.43799
  0
LINE
  8
0
 10
-24.3011
 20
1.43799
 11
-24.393
 21
1.375
  0
LINE
  8
0
 10
-24.393
 20
1.375
 11
-24.5099
 21
1.31499
  0
LINE
  8
0
 10
-24.5099
 20
1.31499
 11
-24.6216
 21
1.27318
  0
LINE
  8
0
 10
-24.6216
 20
1.27318
 11
-24.7036
 21
1.23924
  0
LINE
  8
0
 10
-24.7036
 20
1.23924
 11
-24.7916
 21
1.21024
  0
LINE
  8
0
 10
-24.7916
 20
1.21024
 11
-24.8379
 21
1.198
  0
LINE
  8
0
 10
-24.8379
 20
1.198
 11
-24.9481
 21
1.15781
  0
LINE
  8
0
 10
-24.9481
 20
1.15781
 11
-25.0436
 21
1.10724
  0
LINE
  8
0
 10
-25.0436
 20
1.10724
 11
-25.1246
 21
1.04631
  0
LINE
  8
0
 10
-25.1246
 20
1.04631
 11
-25.1909
 21
0.974991
  0
LINE
  8
0
 10
-25.1909
 20
0.974991
 11
-25.2421
 21
0.894867
  0
LINE
  8
0
 10
-25.2421
 20
0.894867
 11
-25.2786
 21
0.807495
  0
LINE
  8
0
 10
-25.2786
 20
0.807495
 11
-25.3006
 21
0.71286
  0
LINE
  8
0
 10
-25.3006
 20
0.71286
 11
-25.3079
 21
0.610992
  0
LINE
  8
0
 10
-25.3079
 20
0.610992
 11
-25.2947
 21
0.467987
  0
LINE
  8
0
 10
-25.2947
 20
0.467987
 11
-25.2551
 21
0.343994
  0
LINE
  8
0
 10
-25.2551
 20
0.343994
 11
-25.1892
 21
0.238998
  0
LINE
  8
0
 10
-25.1892
 20
0.238998
 11
-25.0969
 21
0.153
  0
LINE
  8
0
 10
-25.0969
 20
0.153
 11
-24.9763
 21
0.0860596
  0
LINE
  8
0
 10
-24.9763
 20
0.0860596
 11
-24.8264
 21
0.0382385
  0
LINE
  8
0
 10
-24.8264
 20
0.0382385
 11
-24.6473
 21
0.009552
  0
LINE
  8
0
 10
-24.6473
 20
0.009552
 11
-24.4389
 21
0
  0
LINE
  8
0
 10
-24.4389
 20
0
 11
-18.7099
 21
0
  0
LINE
  8
0
 10
-18.7099
 20
0
 11
-18.5105
 21
0.009552
  0
LINE
  8
0
 10
-50.7807
 20
8.94299
 11
-50.7807
 21
12.765
  0
LINE
  8
0
 10
-50.7807
 20
12.765
 11
-51.7668
 21
9.28899
  0
LINE
  8
0
 10
-51.7668
 20
9.28899
 11
-54.0208
 21
15.68
  0
LINE
  8
0
 10
-54.0208
 20
15.68
 11
-59.3967
 21
15.657
  0
LINE
  8
0
 10
-59.3967
 20
15.657
 11
-59.5752
 21
15.6467
  0
LINE
  8
0
 10
-59.5752
 20
15.6467
 11
-59.7345
 21
15.6157
  0
LINE
  8
0
 10
-59.7345
 20
15.6157
 11
-59.8747
 21
15.5642
  0
LINE
  8
0
 10
-59.8747
 20
15.5642
 11
-59.9957
 21
15.492
  0
LINE
  8
0
 10
-59.9957
 20
15.492
 11
-60.0933
 21
15.4011
  0
LINE
  8
0
 10
-60.0933
 20
15.4011
 11
-60.163
 21
15.2925
  0
LINE
  8
0
 10
-60.163
 20
15.2925
 11
-60.2048
 21
15.1661
  0
LINE
  8
0
 10
-60.2048
 20
15.1661
 11
-60.2188
 21
15.022
  0
LINE
  8
0
 10
-60.2188
 20
15.022
 11
-60.207
 21
14.8876
  0
LINE
  8
0
 10
-60.207
 20
14.8876
 11
-60.1718
 21
14.7662
  0
LINE
  8
0
 10
-60.1718
 20
14.7662
 11
-60.113
 21
14.6581
  0
LINE
  8
0
 10
-60.113
 20
14.6581
 11
-60.0307
 21
14.563
  0
LINE
  8
0
 10
-60.0307
 20
14.563
 11
-59.925
 21
14.4816
  0
LINE
  8
0
 10
-59.925
 20
14.4816
 11
-59.7957
 21
14.4135
  0
LINE
  8
0
 10
-59.7957
 20
14.4135
 11
-59.643
 21
14.3586
  0
LINE
  8
0
 10
-59.643
 20
14.3586
 11
-59.4668
 21
14.317
  0
LINE
  8
0
 10
-59.4668
 20
14.317
 11
-59.3111
 21
14.2756
  0
LINE
  8
0
 10
-59.3111
 20
14.2756
 11
-59.1732
 21
14.2225
  0
LINE
  8
0
 10
-59.1732
 20
14.2225
 11
-59.0531
 21
14.1576
  0
LINE
  8
0
 10
-59.0531
 20
14.1576
 11
-58.9507
 21
14.081
  0
LINE
  8
0
 10
-58.9507
 20
14.081
 11
-58.8582
 21
13.9857
  0
LINE
  8
0
 10
-58.8582
 20
13.9857
 11
-58.7685
 21
13.864
  0
LINE
  8
0
 10
-58.7685
 20
13.864
 11
-58.6817
 21
13.7157
  0
LINE
  8
0
 10
-58.6817
 20
13.7157
 11
-58.5977
 21
13.541
  0
LINE
  8
0
 10
-58.5977
 20
13.541
 11
-58.5717
 21
13.4497
  0
LINE
  8
0
 10
-58.5717
 20
13.4497
 11
-58.5397
 21
13.364
  0
LINE
  8
0
 10
-58.5397
 20
13.364
 11
-58.4931
 21
13.2477
  0
LINE
  8
0
 10
-58.4931
 20
13.2477
 11
-54.0208
 21
0
  0
LINE
  8
0
 10
-54.0208
 20
0
 11
-53.4337
 21
0
  0
LINE
  8
0
 10
-53.4337
 20
0
 11
-50.7807
 21
8.94299
  0
LINE
  8
0
 10
-63.0988
 20
10.8982
 11
-62.979
 21
10.929
  0
LINE
  8
0
 10
-62.979
 20
10.929
 11
-62.8813
 21
10.9802
  0
LINE
  8
0
 10
-62.8813
 20
10.9802
 11
-62.8057
 21
11.052
  0
LINE
  8
0
 10
-62.8057
 20
11.052
 11
-62.7493
 21
11.1477
  0
LINE
  8
0
 10
-62.7493
 20
11.1477
 11
-62.709
 21
11.2697
  0
LINE
  8
0
 10
-62.709
 20
11.2697
 11
-62.6848
 21
11.4182
  0
LINE
  8
0
 10
-62.6848
 20
11.4182
 11
-62.6767
 21
11.593
  0
LINE
  8
0
 10
-62.6767
 20
11.593
 11
-62.6767
 21
15.68
  0
LINE
  8
0
 10
-62.6767
 20
15.68
 11
-67.3277
 21
15.68
  0
LINE
  8
0
 10
-67.3277
 20
15.68
 11
-67.3277
 21
14.294
  0
LINE
  8
0
 10
-67.3277
 20
14.294
 11
-66.6891
 21
14.189
  0
LINE
  8
0
 10
-66.6891
 20
14.189
 11
-66.1122
 21
14.015
  0
LINE
  8
0
 10
-66.1122
 20
14.015
 11
-65.5971
 21
13.772
  0
LINE
  8
0
 10
-65.5971
 20
13.772
 11
-65.1437
 21
13.46
  0
LINE
  8
0
 10
-65.1437
 20
13.46
 11
-64.7457
 21
13.0717
  0
LINE
  8
0
 10
-64.7457
 20
13.0717
 11
-64.3975
 21
12.5997
  0
LINE
  8
0
 10
-64.3975
 20
12.5997
 11
-64.0992
 21
12.0442
  0
LINE
  8
0
 10
-64.0992
 20
12.0442
 11
-63.8507
 21
11.405
  0
LINE
  8
0
 10
-63.8507
 20
11.405
 11
-63.848
 21
11.3782
  0
LINE
  8
0
 10
-63.848
 20
11.3782
 11
-63.8397
 21
11.346
  0
LINE
  8
0
 10
-63.8397
 20
11.346
 11
-63.8247
 21
11.3137
  0
LINE
  8
0
 10
-63.8247
 20
11.3137
 11
-63.815
 21
11.2997
  0
LINE
  8
0
 10
-63.815
 20
11.2997
 11
-63.8037
 21
11.287
  0
LINE
  8
0
 10
-63.8037
 20
11.287
 11
-63.7557
 21
11.1791
  0
LINE
  8
0
 10
-63.7557
 20
11.1791
 11
-63.7047
 21
11.0902
  0
LINE
  8
0
 10
-63.7047
 20
11.0902
 11
-63.6507
 21
11.0206
  0
LINE
  8
0
 10
-63.6507
 20
11.0206
 11
-63.5937
 21
10.97
  0
LINE
  8
0
 10
-63.5937
 20
10.97
 11
-63.5274
 21
10.9341
  0
LINE
  8
0
 10
-63.5274
 20
10.9341
 11
-63.4465
 21
10.9085
  0
LINE
  8
0
 10
-63.4465
 20
10.9085
 11
-63.3509
 21
10.8931
  0
LINE
  8
0
 10
-63.3509
 20
10.8931
 11
-63.2407
 21
10.888
  0
LINE
  8
0
 10
-63.2407
 20
10.888
 11
-63.0988
 21
10.8982
  0
LINE
  8
0
 10
-68.2857
 20
15.68
 11
-73.4057
 21
15.68
  0
LINE
  8
0
 10
-73.4057
 20
15.68
 11
-73.7107
 21
15.657
  0
LINE
  8
0
 10
-73.7107
 20
15.657
 11
-73.9097
 21
15.6474
  0
LINE
  8
0
 10
-73.9097
 20
15.6474
 11
-74.0837
 21
15.6187
  0
LINE
  8
0
 10
-74.0837
 20
15.6187
 11
-74.2327
 21
15.5709
  0
LINE
  8
0
 10
-74.2327
 20
15.5709
 11
-74.3567
 21
15.504
  0
LINE
  8
0
 10
-74.3567
 20
15.504
 11
-74.4543
 21
15.4165
  0
LINE
  8
0
 10
-74.4543
 20
15.4165
 11
-74.524
 21
15.307
  0
LINE
  8
0
 10
-74.524
 20
15.307
 11
-74.5658
 21
15.1755
  0
LINE
  8
0
 10
-74.5658
 20
15.1755
 11
-74.5797
 21
15.022
  0
LINE
  8
0
 10
-74.5797
 20
15.022
 11
-74.5724
 21
14.9197
  0
LINE
  8
0
 10
-74.5724
 20
14.9197
 11
-74.5505
 21
14.8247
  0
LINE
  8
0
 10
-74.5505
 20
14.8247
 11
-74.5139
 21
14.7372
  0
LINE
  8
0
 10
-74.5139
 20
14.7372
 11
-74.4627
 21
14.657
  0
LINE
  8
0
 10
-74.4627
 20
14.657
 11
-74.3969
 21
14.5861
  0
LINE
  8
0
 10
-74.3969
 20
14.5861
 11
-74.3162
 21
14.5252
  0
LINE
  8
0
 10
-74.3162
 20
14.5252
 11
-74.2209
 21
14.4745
  0
LINE
  8
0
 10
-74.2209
 20
14.4745
 11
-74.1107
 21
14.434
  0
LINE
  8
0
 10
-74.1107
 20
14.434
 11
-74.0197
 21
14.4077
  0
LINE
  8
0
 10
-74.0197
 20
14.4077
 11
-73.9765
 21
14.3922
  0
LINE
  8
0
 10
-73.9765
 20
14.3922
 11
-73.855
 21
14.343
  0
LINE
  8
0
 10
-73.855
 20
14.343
 11
-73.7817
 21
14.317
  0
LINE
  8
0
 10
-73.7817
 20
14.317
 11
-73.6652
 21
14.2566
  0
LINE
  8
0
 10
-73.6652
 20
14.2566
 11
-73.5735
 21
14.1932
  0
LINE
  8
0
 10
-73.5735
 20
14.1932
 11
-73.5067
 21
14.1271
  0
LINE
  8
0
 10
-73.5067
 20
14.1271
 11
-73.4647
 21
14.058
  0
LINE
  8
0
 10
-73.4647
 20
14.058
 11
-73.4389
 21
13.9757
  0
LINE
  8
0
 10
-73.4389
 20
13.9757
 11
-73.4205
 21
13.87
  0
LINE
  8
0
 10
-73.4205
 20
13.87
 11
-73.4094
 21
13.7407
  0
LINE
  8
0
 10
-73.4094
 20
13.7407
 11
-73.4057
 21
13.588
  0
LINE
  8
0
 10
-73.4057
 20
13.588
 11
-73.4057
 21
2.06799
  0
LINE
  8
0
 10
-73.4057
 20
2.06799
 11
-73.4094
 21
1.90474
  0
LINE
  8
0
 10
-73.4094
 20
1.90474
 11
-73.4205
 21
1.76799
  0
LINE
  8
0
 10
-73.4205
 20
1.76799
 11
-73.4389
 21
1.65775
  0
LINE
  8
0
 10
-73.4389
 20
1.65775
 11
-73.4647
 21
1.57399
  0
LINE
  8
0
 10
-73.4647
 20
1.57399
 11
-73.5067
 21
1.50499
  0
LINE
  8
0
 10
-73.5067
 20
1.50499
 11
-73.5735
 21
1.439
  0
LINE
  8
0
 10
-73.5735
 20
1.439
 11
-73.6652
 21
1.37599
  0
LINE
  8
0
 10
-73.6652
 20
1.37599
 11
-73.7817
 21
1.31599
  0
LINE
  8
0
 10
-73.7817
 20
1.31599
 11
-73.894
 21
1.2738
  0
LINE
  8
0
 10
-73.894
 20
1.2738
 11
-73.9765
 21
1.24017
  0
LINE
  8
0
 10
-73.9765
 20
1.24017
 11
-74.0645
 21
1.21068
  0
LINE
  8
0
 10
-74.0645
 20
1.21068
 11
-74.1107
 21
1.198
  0
LINE
  8
0
 10
-74.1107
 20
1.198
 11
-74.2209
 21
1.15781
  0
LINE
  8
0
 10
-74.2209
 20
1.15781
 11
-74.3162
 21
1.10724
  0
LINE
  8
0
 10
-74.3162
 20
1.10724
 11
-74.3969
 21
1.04631
  0
LINE
  8
0
 10
-74.3969
 20
1.04631
 11
-74.4627
 21
0.974991
  0
LINE
  8
0
 10
-74.4627
 20
0.974991
 11
-74.5139
 21
0.894867
  0
LINE
  8
0
 10
-74.5139
 20
0.894867
 11
-74.5505
 21
0.807495
  0
LINE
  8
0
 10
-74.5505
 20
0.807495
 11
-74.5724
 21
0.71286
  0
LINE
  8
0
 10
-74.5724
 20
0.71286
 11
-74.5797
 21
0.610992
  0
LINE
  8
0
 10
-74.5797
 20
0.610992
 11
-74.5665
 21
0.467987
  0
LINE
  8
0
 10
-74.5665
 20
0.467987
 11
-74.527
 21
0.343994
  0
LINE
  8
0
 10
-74.527
 20
0.343994
 11
-74.461
 21
0.238998
  0
LINE
  8
0
 10
-74.461
 20
0.238998
 11
-74.3687
 21
0.153
  0
LINE
  8
0
 10
-74.3687
 20
0.153
 11
-74.2485
 21
0.0860596
  0
LINE
  8
0
 10
-74.2485
 20
0.0860596
 11
-74.0987
 21
0.0382385
  0
LINE
  8
0
 10
-74.0987
 20
0.0382385
 11
-73.9195
 21
0.009552
  0
LINE
  8
0
 10
-73.9195
 20
0.009552
 11
-73.7107
 21
0
  0
LINE
  8
0
 10
-73.7107
 20
0
 11
-68.2857
 21
0
  0
LINE
  8
0
 10
-68.2857
 20
0
 11
-68.2857
 21
15.68
  0
LINE
  8
0
 10
85.5246
 20
15.68
 11
80.4046
 21
15.68
  0
LINE
  8
0
 10
80.4046
 20
15.68
 11
80.0996
 21
15.657
  0
LINE
  8
0
 10
80.0996
 20
15.657
 11
79.9006
 21
15.6474
  0
LINE
  8
0
 10
79.9006
 20
15.6474
 11
79.7266
 21
15.6187
  0
LINE
  8
0
 10
79.7266
 20
15.6187
 11
79.5776
 21
15.5709
  0
LINE
  8
0
 10
79.5776
 20
15.5709
 11
79.4536
 21
15.504
  0
LINE
  8
0
 10
79.4536
 20
15.504
 11
79.356
 21
15.4165
  0
LINE
  8
0
 10
79.356
 20
15.4165
 11
79.2864
 21
15.307
  0
LINE
  8
0
 10
79.2864
 20
15.307
 11
79.2446
 21
15.1755
  0
LINE
  8
0
 10
79.2446
 20
15.1755
 11
79.2306
 21
15.022
  0
LINE
  8
0
 10
79.2306
 20
15.022
 11
79.2379
 21
14.9197
  0
LINE
  8
0
 10
79.2379
 20
14.9197
 11
79.2599
 21
14.8247
  0
LINE
  8
0
 10
79.2599
 20
14.8247
 11
79.2964
 21
14.7372
  0
LINE
  8
0
 10
79.2964
 20
14.7372
 11
79.3476
 21
14.657
  0
LINE
  8
0
 10
79.3476
 20
14.657
 11
79.4135
 21
14.5861
  0
LINE
  8
0
 10
79.4135
 20
14.5861
 11
79.4941
 21
14.5252
  0
LINE
  8
0
 10
79.4941
 20
14.5252
 11
79.5895
 21
14.4745
  0
LINE
  8
0
 10
79.5895
 20
14.4745
 11
79.6996
 21
14.434
  0
LINE
  8
0
 10
79.6996
 20
14.434
 11
79.7906
 21
14.4077
  0
LINE
  8
0
 10
79.7906
 20
14.4077
 11
79.8339
 21
14.3922
  0
LINE
  8
0
 10
79.8339
 20
14.3922
 11
79.9554
 21
14.343
  0
LINE
  8
0
 10
79.9554
 20
14.343
 11
80.0286
 21
14.317
  0
LINE
  8
0
 10
80.0286
 20
14.317
 11
80.1452
 21
14.2566
  0
LINE
  8
0
 10
80.1452
 20
14.2566
 11
80.2369
 21
14.1932
  0
LINE
  8
0
 10
80.2369
 20
14.1932
 11
80.3037
 21
14.1271
  0
LINE
  8
0
 10
80.3037
 20
14.1271
 11
80.3456
 21
14.058
  0
LINE
  8
0
 10
80.3456
 20
14.058
 11
80.3714
 21
13.9757
  0
LINE
  8
0
 10
80.3714
 20
13.9757
 11
80.3899
 21
13.87
  0
LINE
  8
0
 10
80.3899
 20
13.87
 11
80.4009
 21
13.7407
  0
LINE
  8
0
 10
80.4009
 20
13.7407
 11
80.4046
 21
13.588
  0
LINE
  8
0
 10
80.4046
 20
13.588
 11
80.4046
 21
2.06799
  0
LINE
  8
0
 10
80.4046
 20
2.06799
 11
80.4009
 21
1.90474
  0
LINE
  8
0
 10
80.4009
 20
1.90474
 11
80.3899
 21
1.76799
  0
LINE
  8
0
 10
80.3899
 20
1.76799
 11
80.3714
 21
1.65775
  0
LINE
  8
0
 10
80.3714
 20
1.65775
 11
80.3456
 21
1.57399
  0
LINE
  8
0
 10
80.3456
 20
1.57399
 11
80.3037
 21
1.50499
  0
LINE
  8
0
 10
80.3037
 20
1.50499
 11
80.2369
 21
1.439
  0
LINE
  8
0
 10
80.2369
 20
1.439
 11
80.1452
 21
1.37599
  0
LINE
  8
0
 10
80.1452
 20
1.37599
 11
80.0286
 21
1.31599
  0
LINE
  8
0
 10
80.0286
 20
1.31599
 11
79.9163
 21
1.2738
  0
LINE
  8
0
 10
79.9163
 20
1.2738
 11
79.8339
 21
1.24017
  0
LINE
  8
0
 10
79.8339
 20
1.24017
 11
79.7459
 21
1.21068
  0
LINE
  8
0
 10
79.7459
 20
1.21068
 11
79.6996
 21
1.198
  0
LINE
  8
0
 10
79.6996
 20
1.198
 11
79.5895
 21
1.15781
  0
LINE
  8
0
 10
79.5895
 20
1.15781
 11
79.4941
 21
1.10724
  0
LINE
  8
0
 10
79.4941
 20
1.10724
 11
79.4135
 21
1.04631
  0
LINE
  8
0
 10
79.4135
 20
1.04631
 11
79.3476
 21
0.974991
  0
LINE
  8
0
 10
79.3476
 20
0.974991
 11
79.2964
 21
0.894867
  0
LINE
  8
0
 10
79.2964
 20
0.894867
 11
79.2599
 21
0.807495
  0
LINE
  8
0
 10
79.2599
 20
0.807495
 11
79.2379
 21
0.71286
  0
LINE
  8
0
 10
79.2379
 20
0.71286
 11
79.2306
 21
0.610992
  0
LINE
  8
0
 10
79.2306
 20
0.610992
 11
79.2438
 21
0.467987
  0
LINE
  8
0
 10
79.2438
 20
0.467987
 11
79.2834
 21
0.343994
  0
LINE
  8
0
 10
79.2834
 20
0.343994
 11
79.3493
 21
0.238998
  0
LINE
  8
0
 10
79.3493
 20
0.238998
 11
79.4416
 21
0.153
  0
LINE
  8
0
 10
79.4416
 20
0.153
 11
79.5619
 21
0.0860596
  0
LINE
  8
0
 10
79.5619
 20
0.0860596
 11
79.7116
 21
0.0382385
  0
LINE
  8
0
 10
79.7116
 20
0.0382385
 11
79.8909
 21
0.009552
  0
LINE
  8
0
 10
79.8909
 20
0.009552
 11
80.0996
 21
0
  0
LINE
  8
0
 10
80.0996
 20
0
 11
85.5246
 21
0
  0
LINE
  8
0
 10
85.5246
 20
0
 11
85.5246
 21
15.68
  0
LINE
  8
0
 10
-44.1935
 20
0.009552
 11
-44.0217
 21
0.0382385
  0
LINE
  8
0
 10
-44.0217
 20
0.0382385
 11
-43.8765
 21
0.0860596
  0
LINE
  8
0
 10
-43.8765
 20
0.0860596
 11
-43.7578
 21
0.153
  0
LINE
  8
0
 10
-43.7578
 20
0.153
 11
-43.665
 21
0.238998
  0
LINE
  8
0
 10
-43.665
 20
0.238998
 11
-43.5988
 21
0.343994
  0
LINE
  8
0
 10
-43.5988
 20
0.343994
 11
-43.559
 21
0.467987
  0
LINE
  8
0
 10
-43.559
 20
0.467987
 11
-43.5457
 21
0.610992
  0
LINE
  8
0
 10
-43.5457
 20
0.610992
 11
-43.5524
 21
0.71286
  0
LINE
  8
0
 10
-43.5524
 20
0.71286
 11
-43.5723
 21
0.807495
  0
LINE
  8
0
 10
-43.5723
 20
0.807495
 11
-43.6054
 21
0.894867
  0
LINE
  8
0
 10
-43.6054
 20
0.894867
 11
-43.6517
 21
0.974991
  0
LINE
  8
0
 10
-43.6517
 20
0.974991
 11
-43.7128
 21
1.04631
  0
LINE
  8
0
 10
-43.7128
 20
1.04631
 11
-43.79
 21
1.10724
  0
LINE
  8
0
 10
-43.79
 20
1.10724
 11
-43.8833
 21
1.15781
  0
LINE
  8
0
 10
-43.8833
 20
1.15781
 11
-43.9928
 21
1.198
  0
LINE
  8
0
 10
-43.9928
 20
1.198
 11
-44.0867
 21
1.22475
  0
LINE
  8
0
 10
-44.0867
 20
1.22475
 11
-44.3448
 21
1.31599
  0
LINE
  8
0
 10
-44.3448
 20
1.31599
 11
-44.4613
 21
1.37599
  0
LINE
  8
0
 10
-44.4613
 20
1.37599
 11
-44.553
 21
1.439
  0
LINE
  8
0
 10
-44.553
 20
1.439
 11
-44.6198
 21
1.50499
  0
LINE
  8
0
 10
-44.6198
 20
1.50499
 11
-44.6617
 21
1.57399
  0
LINE
  8
0
 10
-44.6617
 20
1.57399
 11
-44.6876
 21
1.65918
  0
LINE
  8
0
 10
-44.6876
 20
1.65918
 11
-44.706
 21
1.77374
  0
LINE
  8
0
 10
-44.706
 20
1.77374
 11
-44.7171
 21
1.91768
  0
LINE
  8
0
 10
-44.7171
 20
1.91768
 11
-44.7207
 21
2.09099
  0
LINE
  8
0
 10
-44.7207
 20
2.09099
 11
-44.7207
 21
13.565
  0
LINE
  8
0
 10
-44.7207
 20
13.565
 11
-44.7171
 21
13.7282
  0
LINE
  8
0
 10
-44.7171
 20
13.7282
 11
-44.706
 21
13.865
  0
LINE
  8
0
 10
-44.706
 20
13.865
 11
-44.6876
 21
13.9752
  0
LINE
  8
0
 10
-44.6876
 20
13.9752
 11
-44.6617
 21
14.059
  0
LINE
  8
0
 10
-44.6617
 20
14.059
 11
-44.6198
 21
14.128
  0
LINE
  8
0
 10
-44.6198
 20
14.128
 11
-44.553
 21
14.194
  0
LINE
  8
0
 10
-44.553
 20
14.194
 11
-44.4613
 21
14.257
  0
LINE
  8
0
 10
-44.4613
 20
14.257
 11
-44.3448
 21
14.317
  0
LINE
  8
0
 10
-44.3448
 20
14.317
 11
-44.1337
 21
14.3928
  0
LINE
  8
0
 10
-44.1337
 20
14.3928
 11
-44.0397
 21
14.4223
  0
LINE
  8
0
 10
-44.0397
 20
14.4223
 11
-43.9928
 21
14.435
  0
LINE
  8
0
 10
-43.9928
 20
14.435
 11
-43.8833
 21
14.4752
  0
LINE
  8
0
 10
-43.8833
 20
14.4752
 11
-43.79
 21
14.5257
  0
LINE
  8
0
 10
-43.79
 20
14.5257
 11
-43.7128
 21
14.5867
  0
LINE
  8
0
 10
-43.7128
 20
14.5867
 11
-43.6517
 21
14.658
  0
LINE
  8
0
 10
-43.6517
 20
14.658
 11
-43.6054
 21
14.7381
  0
LINE
  8
0
 10
-43.6054
 20
14.7381
 11
-43.5723
 21
14.8255
  0
LINE
  8
0
 10
-43.5723
 20
14.8255
 11
-43.5524
 21
14.9201
  0
LINE
  8
0
 10
-43.5524
 20
14.9201
 11
-43.5457
 21
15.022
  0
LINE
  8
0
 10
-43.5457
 20
15.022
 11
-43.559
 21
15.1747
  0
LINE
  8
0
 10
-43.559
 20
15.1747
 11
-43.5988
 21
15.304
  0
LINE
  8
0
 10
-43.5988
 20
15.304
 11
-43.665
 21
15.4097
  0
LINE
  8
0
 10
-43.665
 20
15.4097
 11
-43.7578
 21
15.492
  0
LINE
  8
0
 10
-43.7578
 20
15.492
 11
-43.8765
 21
15.5566
  0
LINE
  8
0
 10
-43.8765
 20
15.5566
 11
-44.0217
 21
15.6095
  0
LINE
  8
0
 10
-44.0217
 20
15.6095
 11
-44.1935
 21
15.6506
  0
LINE
  8
0
 10
-44.1935
 20
15.6506
 11
-44.3918
 21
15.68
  0
LINE
  8
0
 10
-44.3918
 20
15.68
 11
-49.8407
 21
15.68
  0
LINE
  8
0
 10
-49.8407
 20
15.68
 11
-49.8407
 21
2.16199
  0
LINE
  8
0
 10
-49.8407
 20
2.16199
 11
-49.8466
 21
1.96661
  0
LINE
  8
0
 10
-49.8466
 20
1.96661
 11
-49.8642
 21
1.8035
  0
LINE
  8
0
 10
-49.8642
 20
1.8035
 11
-49.8936
 21
1.67262
  0
LINE
  8
0
 10
-49.8936
 20
1.67262
 11
-49.9348
 21
1.57399
  0
LINE
  8
0
 10
-49.9348
 20
1.57399
 11
-50.0008
 21
1.49487
  0
LINE
  8
0
 10
-50.0008
 20
1.49487
 11
-50.105
 21
1.42149
  0
LINE
  8
0
 10
-50.105
 20
1.42149
 11
-50.2473
 21
1.35387
  0
LINE
  8
0
 10
-50.2473
 20
1.35387
 11
-50.4277
 21
1.29199
  0
LINE
  8
0
 10
-50.4277
 20
1.29199
 11
-50.4527
 21
1.28117
  0
LINE
  8
0
 10
-50.4527
 20
1.28117
 11
-50.4807
 21
1.27174
  0
LINE
  8
0
 10
-50.4807
 20
1.27174
 11
-50.7097
 21
1.22198
  0
LINE
  8
0
 10
-50.7097
 20
1.22198
 11
-50.8319
 21
1.19186
  0
LINE
  8
0
 10
-50.8319
 20
1.19186
 11
-50.9393
 21
1.1485
  0
LINE
  8
0
 10
-50.9393
 20
1.1485
 11
-51.0319
 21
1.09187
  0
LINE
  8
0
 10
-51.0319
 20
1.09187
 11
-51.1098
 21
1.02199
  0
LINE
  8
0
 10
-51.1098
 20
1.02199
 11
-51.171
 21
0.940369
  0
LINE
  8
0
 10
-51.171
 20
0.940369
 11
-51.2148
 21
0.848495
  0
LINE
  8
0
 10
-51.2148
 20
0.848495
 11
-51.241
 21
0.746368
  0
LINE
  8
0
 10
-51.241
 20
0.746368
 11
-51.2498
 21
0.633987
  0
LINE
  8
0
 10
-51.2498
 20
0.633987
 11
-51.2344
 21
0.480499
  0
LINE
  8
0
 10
-51.2344
 20
0.480499
 11
-51.1882
 21
0.348999
  0
LINE
  8
0
 10
-51.1882
 20
0.348999
 11
-51.1114
 21
0.239487
  0
LINE
  8
0
 10
-51.1114
 20
0.239487
 11
-51.0038
 21
0.151993
  0
LINE
  8
0
 10
-51.0038
 20
0.151993
 11
-50.8634
 21
0.085495
  0
LINE
  8
0
 10
-50.8634
 20
0.085495
 11
-50.6893
 21
0.0379944
  0
LINE
  8
0
 10
-50.6893
 20
0.0379944
 11
-50.4814
 21
0.00949097
  0
LINE
  8
0
 10
-50.4814
 20
0.00949097
 11
-50.2397
 21
0
  0
LINE
  8
0
 10
-50.2397
 20
0
 11
-44.3918
 21
0
  0
LINE
  8
0
 10
-44.3918
 20
0
 11
-44.1935
 21
0.009552
  0
LINE
  8
0
 10
-84.9507
 20
0.00949097
 11
-84.7378
 21
0.0379944
  0
LINE
  8
0
 10
-84.7378
 20
0.0379944
 11
-84.5632
 21
0.085495
  0
LINE
  8
0
 10
-84.5632
 20
0.085495
 11
-84.4266
 21
0.151993
  0
LINE
  8
0
 10
-84.4266
 20
0.151993
 11
-84.3238
 21
0.239487
  0
LINE
  8
0
 10
-84.3238
 20
0.239487
 11
-84.2503
 21
0.348999
  0
LINE
  8
0
 10
-84.2503
 20
0.348999
 11
-84.2063
 21
0.480499
  0
LINE
  8
0
 10
-84.2063
 20
0.480499
 11
-84.1916
 21
0.633987
  0
LINE
  8
0
 10
-84.1916
 20
0.633987
 11
-84.2004
 21
0.746368
  0
LINE
  8
0
 10
-84.2004
 20
0.746368
 11
-84.2268
 21
0.848495
  0
LINE
  8
0
 10
-84.2268
 20
0.848495
 11
-84.2709
 21
0.940369
  0
LINE
  8
0
 10
-84.2709
 20
0.940369
 11
-84.3326
 21
1.02199
  0
LINE
  8
0
 10
-84.3326
 20
1.02199
 11
-84.4105
 21
1.09331
  0
LINE
  8
0
 10
-84.4105
 20
1.09331
 11
-84.5031
 21
1.15424
  0
LINE
  8
0
 10
-84.5031
 20
1.15424
 11
-84.6105
 21
1.2048
  0
LINE
  8
0
 10
-84.6105
 20
1.2048
 11
-84.7326
 21
1.245
  0
LINE
  8
0
 10
-84.7326
 20
1.245
 11
-84.8606
 21
1.28043
  0
LINE
  8
0
 10
-84.8606
 20
1.28043
 11
-84.9326
 21
1.30249
  0
LINE
  8
0
 10
-84.9326
 20
1.30249
 11
-84.9676
 21
1.31
  0
LINE
  8
0
 10
-84.9676
 20
1.31
 11
-85.0026
 21
1.3145
  0
LINE
  8
0
 10
-85.0026
 20
1.3145
 11
-85.0376
 21
1.31599
  0
LINE
  8
0
 10
-85.0376
 20
1.31599
 11
-85.208
 21
1.37743
  0
LINE
  8
0
 10
-85.208
 20
1.37743
 11
-85.3431
 21
1.44475
  0
LINE
  8
0
 10
-85.3431
 20
1.44475
 11
-85.443
 21
1.51793
  0
LINE
  8
0
 10
-85.443
 20
1.51793
 11
-85.5076
 21
1.59698
  0
LINE
  8
0
 10
-85.5076
 20
1.59698
 11
-85.5487
 21
1.69568
  0
LINE
  8
0
 10
-85.5487
 20
1.69568
 11
-85.5781
 21
1.82674
  0
LINE
  8
0
 10
-85.5781
 20
1.82674
 11
-85.5957
 21
1.99017
  0
LINE
  8
0
 10
-85.5957
 20
1.99017
 11
-85.6016
 21
2.18599
  0
LINE
  8
0
 10
-85.6016
 20
2.18599
 11
-85.6016
 21
15.68
  0
LINE
  8
0
 10
-85.6016
 20
15.68
 11
-90.7216
 21
15.68
  0
LINE
  8
0
 10
-90.7216
 20
15.68
 11
-91.0266
 21
15.657
  0
LINE
  8
0
 10
-91.0266
 20
15.657
 11
-91.2256
 21
15.6474
  0
LINE
  8
0
 10
-91.2256
 20
15.6474
 11
-91.3996
 21
15.6187
  0
LINE
  8
0
 10
-91.3996
 20
15.6187
 11
-91.5486
 21
15.5709
  0
LINE
  8
0
 10
-91.5486
 20
15.5709
 11
-91.6726
 21
15.504
  0
LINE
  8
0
 10
-91.6726
 20
15.504
 11
-91.7701
 21
15.4184
  0
LINE
  8
0
 10
-91.7701
 20
15.4184
 11
-91.8398
 21
15.3135
  0
LINE
  8
0
 10
-91.8398
 20
15.3135
 11
-91.8817
 21
15.1894
  0
LINE
  8
0
 10
-91.8817
 20
15.1894
 11
-91.8956
 21
15.046
  0
LINE
  8
0
 10
-91.8956
 20
15.046
 11
-91.8883
 21
14.9344
  0
LINE
  8
0
 10
-91.8883
 20
14.9344
 11
-91.8663
 21
14.8345
  0
LINE
  8
0
 10
-91.8663
 20
14.8345
 11
-91.8298
 21
14.7464
  0
LINE
  8
0
 10
-91.8298
 20
14.7464
 11
-91.7786
 21
14.67
  0
LINE
  8
0
 10
-91.7786
 20
14.67
 11
-91.7127
 21
14.6024
  0
LINE
  8
0
 10
-91.7127
 20
14.6024
 11
-91.6321
 21
14.5407
  0
LINE
  8
0
 10
-91.6321
 20
14.5407
 11
-91.5367
 21
14.4849
  0
LINE
  8
0
 10
-91.5367
 20
14.4849
 11
-91.4266
 21
14.435
  0
LINE
  8
0
 10
-91.4266
 20
14.435
 11
-91.3356
 21
14.4082
  0
LINE
  8
0
 10
-91.3356
 20
14.4082
 11
-91.0976
 21
14.317
  0
LINE
  8
0
 10
-91.0976
 20
14.317
 11
-90.981
 21
14.2569
  0
LINE
  8
0
 10
-90.981
 20
14.2569
 11
-90.8893
 21
14.1937
  0
LINE
  8
0
 10
-90.8893
 20
14.1937
 11
-90.8225
 21
14.1274
  0
LINE
  8
0
 10
-90.8225
 20
14.1274
 11
-90.7806
 21
14.058
  0
LINE
  8
0
 10
-90.7806
 20
14.058
 11
-90.7548
 21
13.9757
  0
LINE
  8
0
 10
-90.7548
 20
13.9757
 11
-90.7363
 21
13.87
  0
LINE
  8
0
 10
-90.7363
 20
13.87
 11
-90.7253
 21
13.7407
  0
LINE
  8
0
 10
-90.7253
 20
13.7407
 11
-90.7216
 21
13.588
  0
LINE
  8
0
 10
-90.7216
 20
13.588
 11
-90.7216
 21
2.06799
  0
LINE
  8
0
 10
-90.7216
 20
2.06799
 11
-90.726
 21
1.91449
  0
LINE
  8
0
 10
-90.726
 20
1.91449
 11
-90.7393
 21
1.78299
  0
LINE
  8
0
 10
-90.7393
 20
1.78299
 11
-90.7615
 21
1.67349
  0
LINE
  8
0
 10
-90.7615
 20
1.67349
 11
-90.7926
 21
1.586
  0
LINE
  8
0
 10
-90.7926
 20
1.586
 11
-90.8393
 21
1.51175
  0
LINE
  8
0
 10
-90.8393
 20
1.51175
 11
-90.9096
 21
1.44199
  0
LINE
  8
0
 10
-90.9096
 20
1.44199
 11
-91.0033
 21
1.37674
  0
LINE
  8
0
 10
-91.0033
 20
1.37674
 11
-91.1463
 21
1.3033
  0
LINE
  8
0
 10
-91.1463
 20
1.3033
 11
-91.2506
 21
1.25699
  0
LINE
  8
0
 10
-91.2506
 20
1.25699
 11
-91.3356
 21
1.22475
  0
LINE
  8
0
 10
-91.3356
 20
1.22475
 11
-91.4266
 21
1.198
  0
LINE
  8
0
 10
-91.4266
 20
1.198
 11
-91.5367
 21
1.15781
  0
LINE
  8
0
 10
-91.5367
 20
1.15781
 11
-91.6321
 21
1.10724
  0
LINE
  8
0
 10
-91.6321
 20
1.10724
 11
-91.7127
 21
1.04631
  0
LINE
  8
0
 10
-91.7127
 20
1.04631
 11
-91.7786
 21
0.974991
  0
LINE
  8
0
 10
-91.7786
 20
0.974991
 11
-91.8298
 21
0.894867
  0
LINE
  8
0
 10
-91.8298
 20
0.894867
 11
-91.8663
 21
0.807495
  0
LINE
  8
0
 10
-91.8663
 20
0.807495
 11
-91.8883
 21
0.71286
  0
LINE
  8
0
 10
-91.8883
 20
0.71286
 11
-91.8956
 21
0.610992
  0
LINE
  8
0
 10
-91.8956
 20
0.610992
 11
-91.8824
 21
0.467987
  0
LINE
  8
0
 10
-91.8824
 20
0.467987
 11
-91.8428
 21
0.343994
  0
LINE
  8
0
 10
-91.8428
 20
0.343994
 11
-91.7769
 21
0.238998
  0
LINE
  8
0
 10
-91.7769
 20
0.238998
 11
-91.6846
 21
0.153
  0
LINE
  8
0
 10
-91.6846
 20
0.153
 11
-91.5643
 21
0.0860596
  0
LINE
  8
0
 10
-91.5643
 20
0.0860596
 11
-91.4146
 21
0.0382385
  0
LINE
  8
0
 10
-91.4146
 20
0.0382385
 11
-91.2353
 21
0.009552
  0
LINE
  8
0
 10
-91.2353
 20
0.009552
 11
-91.0266
 21
0
  0
LINE
  8
0
 10
-91.0266
 20
0
 11
-85.2016
 21
0
  0
LINE
  8
0
 10
-85.2016
 20
0
 11
-84.9507
 21
0.00949097
  0
LINE
  8
0
 10
-27.7355
 20
0.00880432
 11
-27.554
 21
0.0352478
  0
LINE
  8
0
 10
-27.554
 20
0.0352478
 11
-27.4005
 21
0.0792999
  0
LINE
  8
0
 10
-27.4005
 20
0.0792999
 11
-27.275
 21
0.140991
  0
LINE
  8
0
 10
-27.275
 20
0.140991
 11
-27.1774
 21
0.218811
  0
LINE
  8
0
 10
-27.1774
 20
0.218811
 11
-27.1077
 21
0.311249
  0
LINE
  8
0
 10
-27.1077
 20
0.311249
 11
-27.0659
 21
0.418304
  0
LINE
  8
0
 10
-27.0659
 20
0.418304
 11
-27.052
 21
0.539993
  0
LINE
  8
0
 10
-27.052
 20
0.539993
 11
-27.0572
 21
0.640808
  0
LINE
  8
0
 10
-27.0572
 20
0.640808
 11
-27.0727
 21
0.731247
  0
LINE
  8
0
 10
-27.0727
 20
0.731247
 11
-27.0987
 21
0.81131
  0
LINE
  8
0
 10
-27.0987
 20
0.81131
 11
-27.135
 21
0.880997
  0
LINE
  8
0
 10
-27.135
 20
0.880997
 11
-27.1856
 21
0.944809
  0
LINE
  8
0
 10
-27.1856
 20
0.944809
 11
-27.2552
 21
1.00725
  0
LINE
  8
0
 10
-27.2552
 20
1.00725
 11
-27.3441
 21
1.0683
  0
LINE
  8
0
 10
-27.3441
 20
1.0683
 11
-27.452
 21
1.12799
  0
LINE
  8
0
 10
-27.452
 20
1.12799
 11
-27.4782
 21
1.13074
  0
LINE
  8
0
 10
-27.4782
 20
1.13074
 11
-27.511
 21
1.13899
  0
LINE
  8
0
 10
-27.511
 20
1.13899
 11
-27.5277
 21
1.14574
  0
LINE
  8
0
 10
-27.5277
 20
1.14574
 11
-27.543
 21
1.15399
  0
LINE
  8
0
 10
-27.543
 20
1.15399
 11
-27.5567
 21
1.16374
  0
LINE
  8
0
 10
-27.5567
 20
1.16374
 11
-27.569
 21
1.17499
  0
LINE
  8
0
 10
-27.569
 20
1.17499
 11
-27.6904
 21
1.22562
  0
LINE
  8
0
 10
-27.6904
 20
1.22562
 11
-27.7957
 21
1.28349
  0
LINE
  8
0
 10
-27.7957
 20
1.28349
 11
-27.8849
 21
1.34862
  0
LINE
  8
0
 10
-27.8849
 20
1.34862
 11
-27.958
 21
1.42099
  0
LINE
  8
0
 10
-27.958
 20
1.42099
 11
-28.0203
 21
1.50856
  0
LINE
  8
0
 10
-28.0203
 20
1.50856
 11
-28.0782
 21
1.61824
  0
LINE
  8
0
 10
-28.0782
 20
1.61824
 11
-28.1318
 21
1.75006
  0
LINE
  8
0
 10
-28.1318
 20
1.75006
 11
-28.2012
 21
1.97124
  0
LINE
  8
0
 10
-28.2012
 20
1.97124
 11
-31.426
 21
15.68
  0
LINE
  8
0
 10
-31.426
 20
15.68
 11
-36.06
 21
15.68
  0
LINE
  8
0
 10
-36.06
 20
15.68
 11
-36.342
 21
14.553
  0
LINE
  8
0
 10
-36.342
 20
14.553
 11
-34.225
 21
5.24899
  0
LINE
  8
0
 10
-34.225
 20
5.24899
 11
-36.812
 21
5.24899
  0
LINE
  8
0
 10
-36.812
 20
5.24899
 11
-37.118
 21
3.84
  0
LINE
  8
0
 10
-37.118
 20
3.84
 11
-33.91
 21
3.84
  0
LINE
  8
0
 10
-33.91
 20
3.84
 11
-33.535
 21
2.17799
  0
LINE
  8
0
 10
-33.535
 20
2.17799
 11
-33.511
 21
1.851
  0
LINE
  8
0
 10
-33.511
 20
1.851
 11
-33.5154
 21
1.75061
  0
LINE
  8
0
 10
-33.5154
 20
1.75061
 11
-33.5287
 21
1.66049
  0
LINE
  8
0
 10
-33.5287
 20
1.66049
 11
-33.5509
 21
1.58061
  0
LINE
  8
0
 10
-33.5509
 20
1.58061
 11
-33.582
 21
1.51099
  0
LINE
  8
0
 10
-33.582
 20
1.51099
 11
-33.6229
 21
1.44768
  0
LINE
  8
0
 10
-33.6229
 20
1.44768
 11
-33.6755
 21
1.38574
  0
LINE
  8
0
 10
-33.6755
 20
1.38574
 11
-33.7399
 21
1.32518
  0
LINE
  8
0
 10
-33.7399
 20
1.32518
 11
-33.816
 21
1.26599
  0
LINE
  8
0
 10
-33.816
 20
1.26599
 11
-33.84
 21
1.26299
  0
LINE
  8
0
 10
-33.84
 20
1.26299
 11
-33.864
 21
1.254
  0
LINE
  8
0
 10
-33.864
 20
1.254
 11
-33.887
 21
1.23924
  0
LINE
  8
0
 10
-33.887
 20
1.23924
 11
-33.91
 21
1.21899
  0
LINE
  8
0
 10
-33.91
 20
1.21899
 11
-34.2495
 21
1.00919
  0
LINE
  8
0
 10
-34.2495
 20
1.00919
 11
-34.286
 21
0.984985
  0
LINE
  8
0
 10
-34.286
 20
0.984985
 11
-34.3192
 21
0.948486
  0
LINE
  8
0
 10
-34.3192
 20
0.948486
 11
-34.348
 21
0.908997
  0
LINE
  8
0
 10
-34.348
 20
0.908997
 11
-34.3722
 21
0.866486
  0
LINE
  8
0
 10
-34.3722
 20
0.866486
 11
-34.392
 21
0.820999
  0
LINE
  8
0
 10
-34.392
 20
0.820999
 11
-34.4073
 21
0.771118
  0
LINE
  8
0
 10
-34.4073
 20
0.771118
 11
-34.4182
 21
0.7155
  0
LINE
  8
0
 10
-34.4182
 20
0.7155
 11
-34.4248
 21
0.654114
  0
LINE
  8
0
 10
-34.4248
 20
0.654114
 11
-34.427
 21
0.58699
  0
LINE
  8
0
 10
-34.427
 20
0.58699
 11
-34.4138
 21
0.454056
  0
LINE
  8
0
 10
-34.4138
 20
0.454056
 11
-34.3742
 21
0.33725
  0
LINE
  8
0
 10
-34.3742
 20
0.33725
 11
-34.3083
 21
0.236557
  0
LINE
  8
0
 10
-34.3083
 20
0.236557
 11
-34.216
 21
0.151993
  0
LINE
  8
0
 10
-34.216
 20
0.151993
 11
-34.1027
 21
0.085495
  0
LINE
  8
0
 10
-34.1027
 20
0.085495
 11
-33.9747
 21
0.0379944
  0
LINE
  8
0
 10
-33.9747
 20
0.0379944
 11
-33.8322
 21
0.00949097
  0
LINE
  8
0
 10
-33.8322
 20
0.00949097
 11
-33.675
 21
0
  0
LINE
  8
0
 10
-33.675
 20
0
 11
-27.945
 21
0
  0
LINE
  8
0
 10
-27.945
 20
0
 11
-27.7355
 21
0.00880432
  0
LINE
  8
0
 10
-2.88268
 20
5.056
 11
-8.97968
 21
15.68
  0
LINE
  8
0
 10
-8.97968
 20
15.68
 11
-14.1874
 21
15.6562
  0
LINE
  8
0
 10
-14.1874
 20
15.6562
 11
-14.5049
 21
15.6502
  0
LINE
  8
0
 10
-14.5049
 20
15.6502
 11
-14.6327
 21
15.645
  0
LINE
  8
0
 10
-14.6327
 20
15.645
 11
-14.7424
 21
15.6368
  0
LINE
  8
0
 10
-14.7424
 20
15.6368
 11
-14.8377
 21
15.6242
  0
LINE
  8
0
 10
-14.8377
 20
15.6242
 11
-14.9184
 21
15.6073
  0
LINE
  8
0
 10
-14.9184
 20
15.6073
 11
-14.9847
 21
15.586
  0
LINE
  8
0
 10
-14.9847
 20
15.586
 11
-15.0645
 21
15.5544
  0
LINE
  8
0
 10
-15.0645
 20
15.5544
 11
-15.1402
 21
15.5067
  0
LINE
  8
0
 10
-15.1402
 20
15.5067
 11
-15.2115
 21
15.4429
  0
LINE
  8
0
 10
-15.2115
 20
15.4429
 11
-15.2787
 21
15.363
  0
LINE
  8
0
 10
-15.2787
 20
15.363
 11
-15.3351
 21
15.2727
  0
LINE
  8
0
 10
-15.3351
 20
15.2727
 11
-15.3754
 21
15.178
  0
LINE
  8
0
 10
-15.3754
 20
15.178
 11
-15.3996
 21
15.0787
  0
LINE
  8
0
 10
-15.3996
 20
15.0787
 11
-15.4077
 21
14.975
  0
LINE
  8
0
 10
-15.4077
 20
14.975
 11
-15.401
 21
14.8832
  0
LINE
  8
0
 10
-15.401
 20
14.8832
 11
-15.3812
 21
14.7957
  0
LINE
  8
0
 10
-15.3812
 20
14.7957
 11
-15.3481
 21
14.7127
  0
LINE
  8
0
 10
-15.3481
 20
14.7127
 11
-15.3017
 21
14.634
  0
LINE
  8
0
 10
-15.3017
 20
14.634
 11
-15.245
 21
14.566
  0
LINE
  8
0
 10
-15.245
 20
14.566
 11
-15.1812
 21
14.514
  0
LINE
  8
0
 10
-15.1812
 20
14.514
 11
-15.11
 21
14.478
  0
LINE
  8
0
 10
-15.11
 20
14.478
 11
-15.0317
 21
14.458
  0
LINE
  8
0
 10
-15.0317
 20
14.458
 11
-14.6087
 21
14.273
  0
LINE
  8
0
 10
-14.6087
 20
14.273
 11
-14.4969
 21
14.2267
  0
LINE
  8
0
 10
-14.4969
 20
14.2267
 11
-14.3977
 21
14.18
  0
LINE
  8
0
 10
-14.3977
 20
14.18
 11
-14.3507
 21
14.1541
  0
LINE
  8
0
 10
-14.3507
 20
14.1541
 11
-14.3037
 21
14.1225
  0
LINE
  8
0
 10
-14.3037
 20
14.1225
 11
-14.2567
 21
14.0851
  0
LINE
  8
0
 10
-14.2567
 20
14.0851
 11
-14.2097
 21
14.042
  0
LINE
  8
0
 10
-14.2097
 20
14.042
 11
-14.1619
 21
13.9919
  0
LINE
  8
0
 10
-14.1619
 20
13.9919
 11
-14.1127
 21
13.9345
  0
LINE
  8
0
 10
-14.1127
 20
13.9345
 11
-14.0619
 21
13.8699
  0
LINE
  8
0
 10
-14.0619
 20
13.8699
 11
-13.8949
 21
13.6335
  0
LINE
  8
0
 10
-13.8949
 20
13.6335
 11
-13.7627
 21
13.44
  0
LINE
  8
0
 10
-13.7627
 20
13.44
 11
-6.00168
 21
0
  0
LINE
  8
0
 10
-6.00168
 20
0
 11
-2.88268
 21
0
  0
LINE
  8
0
 10
-2.88268
 20
0
 11
-2.88268
 21
5.056
  0
LINE
  8
0
 10
23.5984
 20
5.056
 11
17.5014
 21
15.68
  0
LINE
  8
0
 10
17.5014
 20
15.68
 11
12.2937
 21
15.6562
  0
LINE
  8
0
 10
12.2937
 20
15.6562
 11
11.9762
 21
15.6502
  0
LINE
  8
0
 10
11.9762
 20
15.6502
 11
11.8484
 21
15.645
  0
LINE
  8
0
 10
11.8484
 20
15.645
 11
11.7387
 21
15.6368
  0
LINE
  8
0
 10
11.7387
 20
15.6368
 11
11.6434
 21
15.6242
  0
LINE
  8
0
 10
11.6434
 20
15.6242
 11
11.5627
 21
15.6073
  0
LINE
  8
0
 10
11.5627
 20
15.6073
 11
11.4964
 21
15.586
  0
LINE
  8
0
 10
11.4964
 20
15.586
 11
11.4165
 21
15.5544
  0
LINE
  8
0
 10
11.4165
 20
15.5544
 11
11.3409
 21
15.5067
  0
LINE
  8
0
 10
11.3409
 20
15.5067
 11
11.2695
 21
15.4429
  0
LINE
  8
0
 10
11.2695
 20
15.4429
 11
11.2024
 21
15.363
  0
LINE
  8
0
 10
11.2024
 20
15.363
 11
11.146
 21
15.2727
  0
LINE
  8
0
 10
11.146
 20
15.2727
 11
11.1057
 21
15.178
  0
LINE
  8
0
 10
11.1057
 20
15.178
 11
11.0815
 21
15.0787
  0
LINE
  8
0
 10
11.0815
 20
15.0787
 11
11.0734
 21
14.975
  0
LINE
  8
0
 10
11.0734
 20
14.975
 11
11.08
 21
14.8832
  0
LINE
  8
0
 10
11.08
 20
14.8832
 11
11.0999
 21
14.7957
  0
LINE
  8
0
 10
11.0999
 20
14.7957
 11
11.133
 21
14.7127
  0
LINE
  8
0
 10
11.133
 20
14.7127
 11
11.1794
 21
14.634
  0
LINE
  8
0
 10
11.1794
 20
14.634
 11
11.236
 21
14.566
  0
LINE
  8
0
 10
11.236
 20
14.566
 11
11.2999
 21
14.514
  0
LINE
  8
0
 10
11.2999
 20
14.514
 11
11.371
 21
14.478
  0
LINE
  8
0
 10
11.371
 20
14.478
 11
11.4494
 21
14.458
  0
LINE
  8
0
 10
11.4494
 20
14.458
 11
11.8724
 21
14.273
  0
LINE
  8
0
 10
11.8724
 20
14.273
 11
11.9842
 21
14.2267
  0
LINE
  8
0
 10
11.9842
 20
14.2267
 11
12.0834
 21
14.18
  0
LINE
  8
0
 10
12.0834
 20
14.18
 11
12.1304
 21
14.1541
  0
LINE
  8
0
 10
12.1304
 20
14.1541
 11
12.1774
 21
14.1225
  0
LINE
  8
0
 10
12.1774
 20
14.1225
 11
12.2244
 21
14.0851
  0
LINE
  8
0
 10
12.2244
 20
14.0851
 11
12.2714
 21
14.042
  0
LINE
  8
0
 10
12.2714
 20
14.042
 11
12.3192
 21
13.9919
  0
LINE
  8
0
 10
12.3192
 20
13.9919
 11
12.3684
 21
13.9345
  0
LINE
  8
0
 10
12.3684
 20
13.9345
 11
12.4192
 21
13.8699
  0
LINE
  8
0
 10
12.4192
 20
13.8699
 11
12.5862
 21
13.6335
  0
LINE
  8
0
 10
12.5862
 20
13.6335
 11
12.7184
 21
13.44
  0
LINE
  8
0
 10
12.7184
 20
13.44
 11
20.4794
 21
0
  0
LINE
  8
0
 10
20.4794
 20
0
 11
23.5984
 21
0
  0
LINE
  8
0
 10
23.5984
 20
0
 11
23.5984
 21
5.056
  0
LINE
  8
0
 10
23.5984
 20
12.098
 11
23.616
 21
12.5033
  0
LINE
  8
0
 10
23.616
 20
12.5033
 11
23.6689
 21
12.8702
  0
LINE
  8
0
 10
23.6689
 20
12.8702
 11
23.757
 21
13.1988
  0
LINE
  8
0
 10
23.757
 20
13.1988
 11
23.8804
 21
13.489
  0
LINE
  8
0
 10
23.8804
 20
13.489
 11
24.039
 21
13.7457
  0
LINE
  8
0
 10
24.039
 20
13.7457
 11
24.2329
 21
13.9727
  0
LINE
  8
0
 10
24.2329
 20
13.9727
 11
24.462
 21
14.1702
  0
LINE
  8
0
 10
24.462
 20
14.1702
 11
24.7264
 21
14.338
  0
LINE
  8
0
 10
24.7264
 20
14.338
 11
25.0424
 21
14.503
  0
LINE
  8
0
 10
25.0424
 20
14.503
 11
25.1037
 21
14.5385
  0
LINE
  8
0
 10
25.1037
 20
14.5385
 11
25.1574
 21
14.574
  0
LINE
  8
0
 10
25.1574
 20
14.574
 11
25.2037
 21
14.6095
  0
LINE
  8
0
 10
25.2037
 20
14.6095
 11
25.2424
 21
14.645
  0
LINE
  8
0
 10
25.2424
 20
14.645
 11
25.2749
 21
14.6912
  0
LINE
  8
0
 10
25.2749
 20
14.6912
 11
25.3014
 21
14.736
  0
LINE
  8
0
 10
25.3014
 20
14.736
 11
25.3219
 21
14.7792
  0
LINE
  8
0
 10
25.3219
 20
14.7792
 11
25.3364
 21
14.821
  0
LINE
  8
0
 10
25.3364
 20
14.821
 11
25.3469
 21
14.8647
  0
LINE
  8
0
 10
25.3469
 20
14.8647
 11
25.3544
 21
14.9127
  0
LINE
  8
0
 10
25.3544
 20
14.9127
 11
25.3589
 21
14.9652
  0
LINE
  8
0
 10
25.3589
 20
14.9652
 11
25.3604
 21
15.022
  0
LINE
  8
0
 10
25.3604
 20
15.022
 11
25.3464
 21
15.1755
  0
LINE
  8
0
 10
25.3464
 20
15.1755
 11
25.3044
 21
15.307
  0
LINE
  8
0
 10
25.3044
 20
15.307
 11
25.2344
 21
15.4165
  0
LINE
  8
0
 10
25.2344
 20
15.4165
 11
25.1364
 21
15.504
  0
LINE
  8
0
 10
25.1364
 20
15.504
 11
25.008
 21
15.5724
  0
LINE
  8
0
 10
25.008
 20
15.5724
 11
24.8459
 21
15.6245
  0
LINE
  8
0
 10
24.8459
 20
15.6245
 11
24.65
 21
15.6604
  0
LINE
  8
0
 10
24.65
 20
15.6604
 11
24.4204
 21
15.68
  0
LINE
  8
0
 10
24.4204
 20
15.68
 11
21.5554
 21
15.657
  0
LINE
  8
0
 10
21.5554
 20
15.657
 11
21.3474
 21
15.6482
  0
LINE
  8
0
 10
21.3474
 20
15.6482
 11
21.1702
 21
15.6217
  0
LINE
  8
0
 10
21.1702
 20
15.6217
 11
21.0238
 21
15.5777
  0
LINE
  8
0
 10
21.0238
 20
15.5777
 11
20.9084
 21
15.516
  0
LINE
  8
0
 10
20.9084
 20
15.516
 11
20.8214
 21
15.4352
  0
LINE
  8
0
 10
20.8214
 20
15.4352
 11
20.7592
 21
15.3337
  0
LINE
  8
0
 10
20.7592
 20
15.3337
 11
20.7218
 21
15.2117
  0
LINE
  8
0
 10
20.7218
 20
15.2117
 11
20.7094
 21
15.069
  0
LINE
  8
0
 10
20.7094
 20
15.069
 11
20.7138
 21
14.9689
  0
LINE
  8
0
 10
20.7138
 20
14.9689
 11
20.7269
 21
14.8805
  0
LINE
  8
0
 10
20.7269
 20
14.8805
 11
20.7488
 21
14.8039
  0
LINE
  8
0
 10
20.7488
 20
14.8039
 11
20.7794
 21
14.739
  0
LINE
  8
0
 10
20.7794
 20
14.739
 11
20.8207
 21
14.6815
  0
LINE
  8
0
 10
20.8207
 20
14.6815
 11
20.8737
 21
14.627
  0
LINE
  8
0
 10
20.8737
 20
14.627
 11
20.9382
 21
14.5755
  0
LINE
  8
0
 10
20.9382
 20
14.5755
 11
21.0144
 21
14.527
  0
LINE
  8
0
 10
21.0144
 20
14.527
 11
21.0271
 21
14.5157
  0
LINE
  8
0
 10
21.0271
 20
14.5157
 11
21.0566
 21
14.4977
  0
LINE
  8
0
 10
21.0566
 20
14.4977
 11
21.0902
 21
14.4847
  0
LINE
  8
0
 10
21.0902
 20
14.4847
 11
21.1057
 21
14.4767
  0
LINE
  8
0
 10
21.1057
 20
14.4767
 11
21.1197
 21
14.4672
  0
LINE
  8
0
 10
21.1197
 20
14.4672
 11
21.1324
 21
14.456
  0
LINE
  8
0
 10
21.1324
 20
14.456
 11
21.458
 21
14.2687
  0
LINE
  8
0
 10
21.458
 20
14.2687
 11
21.7309
 21
14.0607
  0
LINE
  8
0
 10
21.7309
 20
14.0607
 11
21.951
 21
13.8322
  0
LINE
  8
0
 10
21.951
 20
13.8322
 11
22.1184
 21
13.583
  0
LINE
  8
0
 10
22.1184
 20
13.583
 11
22.2418
 21
13.2974
  0
LINE
  8
0
 10
22.2418
 20
13.2974
 11
22.3299
 21
12.9587
  0
LINE
  8
0
 10
22.3299
 20
12.9587
 11
22.3828
 21
12.5669
  0
LINE
  8
0
 10
22.3828
 20
12.5669
 11
22.4004
 21
12.122
  0
LINE
  8
0
 10
22.4004
 20
12.122
 11
22.4004
 21
8.939
  0
LINE
  8
0
 10
22.4004
 20
8.939
 11
23.5984
 21
6.88799
  0
LINE
  8
0
 10
23.5984
 20
6.88799
 11
23.5984
 21
12.098
  0
LINE
  8
0
 10
56.1948
 20
15.68
 11
51.0748
 21
15.68
  0
LINE
  8
0
 10
51.0748
 20
15.68
 11
50.7698
 21
15.657
  0
LINE
  8
0
 10
50.7698
 20
15.657
 11
50.5708
 21
15.6474
  0
LINE
  8
0
 10
50.5708
 20
15.6474
 11
50.3968
 21
15.6187
  0
LINE
  8
0
 10
50.3968
 20
15.6187
 11
50.2478
 21
15.5709
  0
LINE
  8
0
 10
50.2478
 20
15.5709
 11
50.1238
 21
15.504
  0
LINE
  8
0
 10
50.1238
 20
15.504
 11
50.0262
 21
15.4165
  0
LINE
  8
0
 10
50.0262
 20
15.4165
 11
49.9566
 21
15.307
  0
LINE
  8
0
 10
49.9566
 20
15.307
 11
49.9147
 21
15.1755
  0
LINE
  8
0
 10
49.9147
 20
15.1755
 11
49.9008
 21
15.022
  0
LINE
  8
0
 10
49.9008
 20
15.022
 11
49.9081
 21
14.9197
  0
LINE
  8
0
 10
49.9081
 20
14.9197
 11
49.9301
 21
14.8247
  0
LINE
  8
0
 10
49.9301
 20
14.8247
 11
49.9666
 21
14.7372
  0
LINE
  8
0
 10
49.9666
 20
14.7372
 11
50.0178
 21
14.657
  0
LINE
  8
0
 10
50.0178
 20
14.657
 11
50.0837
 21
14.5861
  0
LINE
  8
0
 10
50.0837
 20
14.5861
 11
50.1643
 21
14.5252
  0
LINE
  8
0
 10
50.1643
 20
14.5252
 11
50.2597
 21
14.4745
  0
LINE
  8
0
 10
50.2597
 20
14.4745
 11
50.3698
 21
14.434
  0
LINE
  8
0
 10
50.3698
 20
14.434
 11
50.4608
 21
14.4077
  0
LINE
  8
0
 10
50.4608
 20
14.4077
 11
50.5041
 21
14.3922
  0
LINE
  8
0
 10
50.5041
 20
14.3922
 11
50.6255
 21
14.343
  0
LINE
  8
0
 10
50.6255
 20
14.343
 11
50.6988
 21
14.317
  0
LINE
  8
0
 10
50.6988
 20
14.317
 11
50.8154
 21
14.2566
  0
LINE
  8
0
 10
50.8154
 20
14.2566
 11
50.9071
 21
14.1932
  0
LINE
  8
0
 10
50.9071
 20
14.1932
 11
50.9739
 21
14.1271
  0
LINE
  8
0
 10
50.9739
 20
14.1271
 11
51.0158
 21
14.058
  0
LINE
  8
0
 10
51.0158
 20
14.058
 11
51.0416
 21
13.9757
  0
LINE
  8
0
 10
51.0416
 20
13.9757
 11
51.0601
 21
13.87
  0
LINE
  8
0
 10
51.0601
 20
13.87
 11
51.0711
 21
13.7407
  0
LINE
  8
0
 10
51.0711
 20
13.7407
 11
51.0748
 21
13.588
  0
LINE
  8
0
 10
51.0748
 20
13.588
 11
51.0748
 21
2.06799
  0
LINE
  8
0
 10
51.0748
 20
2.06799
 11
51.0711
 21
1.90474
  0
LINE
  8
0
 10
51.0711
 20
1.90474
 11
51.0601
 21
1.76799
  0
LINE
  8
0
 10
51.0601
 20
1.76799
 11
51.0416
 21
1.65775
  0
LINE
  8
0
 10
51.0416
 20
1.65775
 11
51.0158
 21
1.57399
  0
LINE
  8
0
 10
51.0158
 20
1.57399
 11
50.9739
 21
1.50499
  0
LINE
  8
0
 10
50.9739
 20
1.50499
 11
50.9071
 21
1.439
  0
LINE
  8
0
 10
50.9071
 20
1.439
 11
50.8154
 21
1.37599
  0
LINE
  8
0
 10
50.8154
 20
1.37599
 11
50.6988
 21
1.31599
  0
LINE
  8
0
 10
50.6988
 20
1.31599
 11
50.5865
 21
1.2738
  0
LINE
  8
0
 10
50.5865
 20
1.2738
 11
50.5041
 21
1.24017
  0
LINE
  8
0
 10
50.5041
 20
1.24017
 11
50.4161
 21
1.21068
  0
LINE
  8
0
 10
50.4161
 20
1.21068
 11
50.3698
 21
1.198
  0
LINE
  8
0
 10
50.3698
 20
1.198
 11
50.2597
 21
1.15781
  0
LINE
  8
0
 10
50.2597
 20
1.15781
 11
50.1643
 21
1.10724
  0
LINE
  8
0
 10
50.1643
 20
1.10724
 11
50.0837
 21
1.04631
  0
LINE
  8
0
 10
50.0837
 20
1.04631
 11
50.0178
 21
0.974991
  0
LINE
  8
0
 10
50.0178
 20
0.974991
 11
49.9666
 21
0.894867
  0
LINE
  8
0
 10
49.9666
 20
0.894867
 11
49.9301
 21
0.807495
  0
LINE
  8
0
 10
49.9301
 20
0.807495
 11
49.9081
 21
0.71286
  0
LINE
  8
0
 10
49.9081
 20
0.71286
 11
49.9008
 21
0.610992
  0
LINE
  8
0
 10
49.9008
 20
0.610992
 11
49.914
 21
0.467987
  0
LINE
  8
0
 10
49.914
 20
0.467987
 11
49.9536
 21
0.343994
  0
LINE
  8
0
 10
49.9536
 20
0.343994
 11
50.0195
 21
0.238998
  0
LINE
  8
0
 10
50.0195
 20
0.238998
 11
50.1118
 21
0.153
  0
LINE
  8
0
 10
50.1118
 20
0.153
 11
50.2321
 21
0.0860596
  0
LINE
  8
0
 10
50.2321
 20
0.0860596
 11
50.3818
 21
0.0382385
  0
LINE
  8
0
 10
50.3818
 20
0.0382385
 11
50.5611
 21
0.009552
  0
LINE
  8
0
 10
50.5611
 20
0.009552
 11
50.7698
 21
0
  0
LINE
  8
0
 10
50.7698
 20
0
 11
56.1948
 21
0
  0
LINE
  8
0
 10
56.1948
 20
0
 11
56.1948
 21
15.68
  0
LINE
  8
0
 10
61.3817
 20
10.8982
 11
61.5016
 21
10.929
  0
LINE
  8
0
 10
61.5016
 20
10.929
 11
61.5992
 21
10.9802
  0
LINE
  8
0
 10
61.5992
 20
10.9802
 11
61.6748
 21
11.052
  0
LINE
  8
0
 10
61.6748
 20
11.052
 11
61.7312
 21
11.1477
  0
LINE
  8
0
 10
61.7312
 20
11.1477
 11
61.7716
 21
11.2697
  0
LINE
  8
0
 10
61.7716
 20
11.2697
 11
61.7957
 21
11.4182
  0
LINE
  8
0
 10
61.7957
 20
11.4182
 11
61.8038
 21
11.593
  0
LINE
  8
0
 10
61.8038
 20
11.593
 11
61.8038
 21
15.68
  0
LINE
  8
0
 10
61.8038
 20
15.68
 11
57.1528
 21
15.68
  0
LINE
  8
0
 10
57.1528
 20
15.68
 11
57.1528
 21
14.294
  0
LINE
  8
0
 10
57.1528
 20
14.294
 11
57.7914
 21
14.189
  0
LINE
  8
0
 10
57.7914
 20
14.189
 11
58.3683
 21
14.015
  0
LINE
  8
0
 10
58.3683
 20
14.015
 11
58.8834
 21
13.772
  0
LINE
  8
0
 10
58.8834
 20
13.772
 11
59.3368
 21
13.46
  0
LINE
  8
0
 10
59.3368
 20
13.46
 11
59.7349
 21
13.0717
  0
LINE
  8
0
 10
59.7349
 20
13.0717
 11
60.0831
 21
12.5997
  0
LINE
  8
0
 10
60.0831
 20
12.5997
 11
60.3814
 21
12.0442
  0
LINE
  8
0
 10
60.3814
 20
12.0442
 11
60.6298
 21
11.405
  0
LINE
  8
0
 10
60.6298
 20
11.405
 11
60.6326
 21
11.3782
  0
LINE
  8
0
 10
60.6326
 20
11.3782
 11
60.6408
 21
11.346
  0
LINE
  8
0
 10
60.6408
 20
11.346
 11
60.6558
 21
11.3137
  0
LINE
  8
0
 10
60.6558
 20
11.3137
 11
60.6656
 21
11.2997
  0
LINE
  8
0
 10
60.6656
 20
11.2997
 11
60.6768
 21
11.287
  0
LINE
  8
0
 10
60.6768
 20
11.287
 11
60.7248
 21
11.1791
  0
LINE
  8
0
 10
60.7248
 20
11.1791
 11
60.7758
 21
11.0902
  0
LINE
  8
0
 10
60.7758
 20
11.0902
 11
60.8298
 21
11.0206
  0
LINE
  8
0
 10
60.8298
 20
11.0206
 11
60.8868
 21
10.97
  0
LINE
  8
0
 10
60.8868
 20
10.97
 11
60.9531
 21
10.9341
  0
LINE
  8
0
 10
60.9531
 20
10.9341
 11
61.0341
 21
10.9085
  0
LINE
  8
0
 10
61.0341
 20
10.9085
 11
61.1296
 21
10.8931
  0
LINE
  8
0
 10
61.1296
 20
10.8931
 11
61.2398
 21
10.888
  0
LINE
  8
0
 10
61.2398
 20
10.888
 11
61.3817
 21
10.8982
  0
LINE
  8
0
 10
-79.8746
 20
-0.296936
 11
-79.5818
 21
-0.272736
  0
LINE
  8
0
 10
-79.5818
 20
-0.272736
 11
-79.3051
 21
-0.232437
  0
LINE
  8
0
 10
-79.3051
 20
-0.232437
 11
-79.0446
 21
-0.175995
  0
LINE
  8
0
 10
-79.0446
 20
-0.175995
 11
-78.7987
 21
-0.104874
  0
LINE
  8
0
 10
-78.7987
 20
-0.104874
 11
-78.5661
 21
-0.0204926
  0
LINE
  8
0
 10
-78.5661
 20
-0.0204926
 11
-78.3467
 21
0.0771179
  0
LINE
  8
0
 10
-78.3467
 20
0.0771179
 11
-78.1406
 21
0.187988
  0
LINE
  8
0
 10
-78.1406
 20
0.187988
 11
-77.991
 21
0.296875
  0
LINE
  8
0
 10
-77.991
 20
0.296875
 11
-77.8473
 21
0.411499
  0
LINE
  8
0
 10
-77.8473
 20
0.411499
 11
-77.7095
 21
0.53186
  0
LINE
  8
0
 10
-77.7095
 20
0.53186
 11
-77.5776
 21
0.65799
  0
LINE
  8
0
 10
-77.5776
 20
0.65799
 11
-77.4511
 21
0.788925
  0
LINE
  8
0
 10
-77.4511
 20
0.788925
 11
-77.3306
 21
0.922745
  0
LINE
  8
0
 10
-77.3306
 20
0.922745
 11
-77.2161
 21
1.05943
  0
LINE
  8
0
 10
-77.2161
 20
1.05943
 11
-77.1076
 21
1.19899
  0
LINE
  8
0
 10
-77.1076
 20
1.19899
 11
-77.0187
 21
1.32843
  0
LINE
  8
0
 10
-77.0187
 20
1.32843
 11
-76.9401
 21
1.45775
  0
LINE
  8
0
 10
-76.9401
 20
1.45775
 11
-76.8717
 21
1.58693
  0
LINE
  8
0
 10
-76.8717
 20
1.58693
 11
-76.8136
 21
1.71599
  0
LINE
  8
0
 10
-76.8136
 20
1.71599
 11
-76.7672
 21
1.84105
  0
LINE
  8
0
 10
-76.7672
 20
1.84105
 11
-76.7341
 21
1.95724
  0
LINE
  8
0
 10
-76.7341
 20
1.95724
 11
-76.7142
 21
2.06456
  0
LINE
  8
0
 10
-76.7142
 20
2.06456
 11
-76.7076
 21
2.16299
  0
LINE
  8
0
 10
-76.7076
 20
2.16299
 11
-76.7076
 21
2.209
  0
LINE
  8
0
 10
-76.7076
 20
2.209
 11
-76.7091
 21
2.22243
  0
LINE
  8
0
 10
-76.7091
 20
2.22243
 11
-76.7211
 21
2.25793
  0
LINE
  8
0
 10
-76.7211
 20
2.25793
 11
-76.7316
 21
2.28
  0
LINE
  8
0
 10
-76.7316
 20
2.28
 11
-76.7498
 21
2.34975
  0
LINE
  8
0
 10
-76.7498
 20
2.34975
 11
-76.7813
 21
2.418
  0
LINE
  8
0
 10
-76.7813
 20
2.418
 11
-76.8263
 21
2.48474
  0
LINE
  8
0
 10
-76.8263
 20
2.48474
 11
-76.8846
 21
2.54999
  0
LINE
  8
0
 10
-76.8846
 20
2.54999
 11
-76.9498
 21
2.6113
  0
LINE
  8
0
 10
-76.9498
 20
2.6113
 11
-77.0163
 21
2.66524
  0
LINE
  8
0
 10
-77.0163
 20
2.66524
 11
-77.0843
 21
2.71181
  0
LINE
  8
0
 10
-77.0843
 20
2.71181
 11
-77.1536
 21
2.75099
  0
LINE
  8
0
 10
-77.1536
 20
2.75099
 11
-77.1978
 21
2.75374
  0
LINE
  8
0
 10
-77.1978
 20
2.75374
 11
-77.2366
 21
2.76199
  0
LINE
  8
0
 10
-77.2366
 20
2.76199
 11
-77.2686
 21
2.771
  0
LINE
  8
0
 10
-77.2686
 20
2.771
 11
-77.2946
 21
2.77399
  0
LINE
  8
0
 10
-77.2946
 20
2.77399
 11
-77.3301
 21
2.77249
  0
LINE
  8
0
 10
-77.3301
 20
2.77249
 11
-77.3656
 21
2.76799
  0
LINE
  8
0
 10
-77.3656
 20
2.76799
 11
-77.4011
 21
2.7605
  0
LINE
  8
0
 10
-77.4011
 20
2.7605
 11
-77.4366
 21
2.75
  0
LINE
  8
0
 10
-77.4366
 20
2.75
 11
-77.4716
 21
2.737
  0
LINE
  8
0
 10
-77.4716
 20
2.737
 11
-77.5066
 21
2.72099
  0
LINE
  8
0
 10
-77.5066
 20
2.72099
 11
-77.5416
 21
2.702
  0
LINE
  8
0
 10
-77.5416
 20
2.702
 11
-77.5766
 21
2.67999
  0
LINE
  8
0
 10
-77.5766
 20
2.67999
 11
-77.6221
 21
2.655
  0
LINE
  8
0
 10
-77.6221
 20
2.655
 11
-77.6648
 21
2.627
  0
LINE
  8
0
 10
-77.6648
 20
2.627
 11
-77.7047
 21
2.59599
  0
LINE
  8
0
 10
-77.7047
 20
2.59599
 11
-77.7416
 21
2.562
  0
LINE
  8
0
 10
-77.7416
 20
2.562
 11
-77.8826
 21
2.42099
  0
LINE
  8
0
 10
-77.8826
 20
2.42099
 11
-77.9996
 21
2.26799
  0
LINE
  8
0
 10
-77.9996
 20
2.26799
 11
-78.0231
 21
2.24112
  0
LINE
  8
0
 10
-78.0231
 20
2.24112
 11
-78.0466
 21
2.21849
  0
LINE
  8
0
 10
-78.0466
 20
2.21849
 11
-78.0701
 21
2.20012
  0
LINE
  8
0
 10
-78.0701
 20
2.20012
 11
-78.0936
 21
2.18599
  0
LINE
  8
0
 10
-78.0936
 20
2.18599
 11
-78.1173
 21
2.183
  0
LINE
  8
0
 10
-78.1173
 20
2.183
 11
-78.1536
 21
2.16917
  0
LINE
  8
0
 10
-78.1536
 20
2.16917
 11
-78.1886
 21
2.16368
  0
LINE
  8
0
 10
-78.1886
 20
2.16368
 11
-78.2106
 21
2.16299
  0
LINE
  8
0
 10
-78.2106
 20
2.16299
 11
-78.2659
 21
2.16887
  0
LINE
  8
0
 10
-78.2659
 20
2.16887
 11
-78.3138
 21
2.18649
  0
LINE
  8
0
 10
-78.3138
 20
2.18649
 11
-78.3544
 21
2.21587
  0
LINE
  8
0
 10
-78.3544
 20
2.21587
 11
-78.3876
 21
2.25699
  0
LINE
  8
0
 10
-78.3876
 20
2.25699
 11
-78.413
 21
2.30986
  0
LINE
  8
0
 10
-78.413
 20
2.30986
 11
-78.4311
 21
2.3745
  0
LINE
  8
0
 10
-78.4311
 20
2.3745
 11
-78.442
 21
2.45087
  0
LINE
  8
0
 10
-78.442
 20
2.45087
 11
-78.4456
 21
2.53899
  0
LINE
  8
0
 10
-78.4456
 20
2.53899
 11
-78.4456
 21
4.89
  0
LINE
  8
0
 10
-78.4456
 20
4.89
 11
-78.4662
 21
5.19112
  0
LINE
  8
0
 10
-78.4662
 20
5.19112
 11
-78.5281
 21
5.48349
  0
LINE
  8
0
 10
-78.5281
 20
5.48349
 11
-78.6312
 21
5.76712
  0
LINE
  8
0
 10
-78.6312
 20
5.76712
 11
-78.7756
 21
6.04199
  0
LINE
  8
0
 10
-78.7756
 20
6.04199
 11
-78.9563
 21
6.30067
  0
LINE
  8
0
 10
-78.9563
 20
6.30067
 11
-79.1696
 21
6.53574
  0
LINE
  8
0
 10
-79.1696
 20
6.53574
 11
-79.4153
 21
6.74718
  0
LINE
  8
0
 10
-79.4153
 20
6.74718
 11
-79.6936
 21
6.935
  0
LINE
  8
0
 10
-79.6936
 20
6.935
 11
-79.7406
 21
6.96175
  0
LINE
  8
0
 10
-79.7406
 20
6.96175
 11
-79.8346
 21
7.02625
  0
LINE
  8
0
 10
-79.8346
 20
7.02625
 11
-79.8816
 21
7.05299
  0
LINE
  8
0
 10
-79.8816
 20
7.05299
 11
-80.0715
 21
7.14331
  0
LINE
  8
0
 10
-80.0715
 20
7.14331
 11
-80.2643
 21
7.22624
  0
LINE
  8
0
 10
-80.2643
 20
7.22624
 11
-80.46
 21
7.3018
  0
LINE
  8
0
 10
-80.46
 20
7.3018
 11
-80.6586
 21
7.37
  0
LINE
  8
0
 10
-80.6586
 20
7.37
 11
-80.8763
 21
7.43381
  0
LINE
  8
0
 10
-80.8763
 20
7.43381
 11
-81.1293
 21
7.49625
  0
LINE
  8
0
 10
-81.1293
 20
7.49625
 11
-81.4178
 21
7.55731
  0
LINE
  8
0
 10
-81.4178
 20
7.55731
 11
-81.7416
 21
7.61699
  0
LINE
  8
0
 10
-81.7416
 20
7.61699
 11
-81.8356
 21
7.62
  0
LINE
  8
0
 10
-81.8356
 20
7.62
 11
-81.9296
 21
7.629
  0
LINE
  8
0
 10
-81.9296
 20
7.629
 11
-82.0236
 21
7.64374
  0
LINE
  8
0
 10
-82.0236
 20
7.64374
 11
-82.1176
 21
7.66399
  0
LINE
  8
0
 10
-82.1176
 20
7.66399
 11
-81.9126
 21
7.72218
  0
LINE
  8
0
 10
-81.9126
 20
7.72218
 11
-81.7208
 21
7.77875
  0
LINE
  8
0
 10
-81.7208
 20
7.77875
 11
-81.5421
 21
7.83368
  0
LINE
  8
0
 10
-81.5421
 20
7.83368
 11
-81.3766
 21
7.88699
  0
LINE
  8
0
 10
-81.3766
 20
7.88699
 11
-81.2213
 21
7.94073
  0
LINE
  8
0
 10
-81.2213
 20
7.94073
 11
-81.0733
 21
7.99599
  0
LINE
  8
0
 10
-81.0733
 20
7.99599
 11
-80.9328
 21
8.05275
  0
LINE
  8
0
 10
-80.9328
 20
8.05275
 11
-80.7996
 21
8.11099
  0
LINE
  8
0
 10
-80.7996
 20
8.11099
 11
-80.629
 21
8.18149
  0
LINE
  8
0
 10
-80.629
 20
8.18149
 11
-80.4701
 21
8.252
  0
LINE
  8
0
 10
-80.4701
 20
8.252
 11
-80.323
 21
8.32249
  0
LINE
  8
0
 10
-80.323
 20
8.32249
 11
-80.1876
 21
8.39299
  0
LINE
  8
0
 10
-80.1876
 20
8.39299
 11
-80.0596
 21
8.46643
  0
LINE
  8
0
 10
-80.0596
 20
8.46643
 11
-79.9346
 21
8.54575
  0
LINE
  8
0
 10
-79.9346
 20
8.54575
 11
-79.8126
 21
8.63094
  0
LINE
  8
0
 10
-79.8126
 20
8.63094
 11
-79.6936
 21
8.72198
  0
LINE
  8
0
 10
-79.6936
 20
8.72198
 11
-79.6466
 21
8.769
  0
LINE
  8
0
 10
-79.6466
 20
8.769
 11
-79.3583
 21
9.02312
  0
LINE
  8
0
 10
-79.3583
 20
9.02312
 11
-79.1053
 21
9.31549
  0
LINE
  8
0
 10
-79.1053
 20
9.31549
 11
-78.8878
 21
9.64612
  0
LINE
  8
0
 10
-78.8878
 20
9.64612
 11
-78.7056
 21
10.015
  0
LINE
  8
0
 10
-78.7056
 20
10.015
 11
-78.5612
 21
10.4089
  0
LINE
  8
0
 10
-78.5612
 20
10.4089
 11
-78.4581
 21
10.8145
  0
LINE
  8
0
 10
-78.4581
 20
10.8145
 11
-78.3962
 21
11.2319
  0
LINE
  8
0
 10
-78.3962
 20
11.2319
 11
-78.3756
 21
11.661
  0
LINE
  8
0
 10
-78.3756
 20
11.661
 11
-78.4043
 21
12.176
  0
LINE
  8
0
 10
-78.4043
 20
12.176
 11
-78.4903
 21
12.663
  0
LINE
  8
0
 10
-78.4903
 20
12.663
 11
-78.6338
 21
13.122
  0
LINE
  8
0
 10
-78.6338
 20
13.122
 11
-78.8346
 21
13.553
  0
LINE
  8
0
 10
-78.8346
 20
13.553
 11
-79.0924
 21
13.9506
  0
LINE
  8
0
 10
-79.0924
 20
13.9506
 11
-79.4078
 21
14.3085
  0
LINE
  8
0
 10
-79.4078
 20
14.3085
 11
-79.7809
 21
14.6266
  0
LINE
  8
0
 10
-79.7809
 20
14.6266
 11
-80.2848
 21
14.952
  0
LINE
  8
0
 10
-80.2848
 20
14.952
 11
-80.3646
 21
14.999
  0
LINE
  8
0
 10
-80.3646
 20
14.999
 11
-80.4063
 21
15.021
  0
LINE
  8
0
 10
-80.4063
 20
15.021
 11
-80.4496
 21
15.04
  0
LINE
  8
0
 10
-80.4496
 20
15.04
 11
-80.4943
 21
15.056
  0
LINE
  8
0
 10
-80.4943
 20
15.056
 11
-80.5406
 21
15.069
  0
LINE
  8
0
 10
-80.5406
 20
15.069
 11
-80.8797
 21
15.2307
  0
LINE
  8
0
 10
-80.8797
 20
15.2307
 11
-81.2381
 21
15.363
  0
LINE
  8
0
 10
-81.2381
 20
15.363
 11
-81.6157
 21
15.4657
  0
LINE
  8
0
 10
-81.6157
 20
15.4657
 11
-82.0126
 21
15.539
  0
LINE
  8
0
 10
-82.0126
 20
15.539
 11
-82.4679
 21
15.5921
  0
LINE
  8
0
 10
-82.4679
 20
15.5921
 11
-83.0218
 21
15.6332
  0
LINE
  8
0
 10
-83.0218
 20
15.6332
 11
-83.6744
 21
15.6626
  0
LINE
  8
0
 10
-83.6744
 20
15.6626
 11
-84.4256
 21
15.68
  0
LINE
  8
0
 10
-84.4256
 20
15.68
 11
-84.7076
 21
15.68
  0
LINE
  8
0
 10
-84.7076
 20
15.68
 11
-84.7076
 21
14.383
  0
LINE
  8
0
 10
-84.7076
 20
14.383
 11
-84.3588
 21
14.2584
  0
LINE
  8
0
 10
-84.3588
 20
14.2584
 11
-84.0723
 21
14.1205
  0
LINE
  8
0
 10
-84.0723
 20
14.1205
 11
-83.8483
 21
13.9694
  0
LINE
  8
0
 10
-83.8483
 20
13.9694
 11
-83.6866
 21
13.805
  0
LINE
  8
0
 10
-83.6866
 20
13.805
 11
-83.572
 21
13.6116
  0
LINE
  8
0
 10
-83.572
 20
13.6116
 11
-83.4901
 21
13.3722
  0
LINE
  8
0
 10
-83.4901
 20
13.3722
 11
-83.441
 21
13.0871
  0
LINE
  8
0
 10
-83.441
 20
13.0871
 11
-83.4246
 21
12.756
  0
LINE
  8
0
 10
-83.4246
 20
12.756
 11
-83.4246
 21
9.69099
  0
LINE
  8
0
 10
-83.4246
 20
9.69099
 11
-83.4424
 21
9.32849
  0
LINE
  8
0
 10
-83.4424
 20
9.32849
 11
-83.4958
 21
9.019
  0
LINE
  8
0
 10
-83.4958
 20
9.019
 11
-83.5849
 21
8.7625
  0
LINE
  8
0
 10
-83.5849
 20
8.7625
 11
-83.7096
 21
8.55899
  0
LINE
  8
0
 10
-83.7096
 20
8.55899
 11
-83.8788
 21
8.40012
  0
LINE
  8
0
 10
-83.8788
 20
8.40012
 11
-84.1016
 21
8.27649
  0
LINE
  8
0
 10
-84.1016
 20
8.27649
 11
-84.3778
 21
8.18811
  0
LINE
  8
0
 10
-84.3778
 20
8.18811
 11
-84.7076
 21
8.13499
  0
LINE
  8
0
 10
-84.7076
 20
8.13499
 11
-84.7076
 21
6.91199
  0
LINE
  8
0
 10
-84.7076
 20
6.91199
 11
-84.3876
 21
6.85143
  0
LINE
  8
0
 10
-84.3876
 20
6.85143
 11
-84.1166
 21
6.74074
  0
LINE
  8
0
 10
-84.1166
 20
6.74074
 11
-83.8946
 21
6.57993
  0
LINE
  8
0
 10
-83.8946
 20
6.57993
 11
-83.7216
 21
6.36899
  0
LINE
  8
0
 10
-83.7216
 20
6.36899
 11
-83.5916
 21
6.10249
  0
LINE
  8
0
 10
-83.5916
 20
6.10249
 11
-83.4988
 21
5.77399
  0
LINE
  8
0
 10
-83.4988
 20
5.77399
 11
-83.4431
 21
5.3835
  0
LINE
  8
0
 10
-83.4431
 20
5.3835
 11
-83.4246
 21
4.931
  0
LINE
  8
0
 10
-83.4246
 20
4.931
 11
-83.4246
 21
2.97299
  0
LINE
  8
0
 10
-83.4246
 20
2.97299
 11
-83.371
 21
2.23843
  0
LINE
  8
0
 10
-83.371
 20
2.23843
 11
-83.2103
 21
1.59074
  0
LINE
  8
0
 10
-83.2103
 20
1.59074
 11
-82.9425
 21
1.02992
  0
LINE
  8
0
 10
-82.9425
 20
1.02992
 11
-82.5676
 21
0.556
  0
LINE
  8
0
 10
-82.5676
 20
0.556
 11
-82.0972
 21
0.179306
  0
LINE
  8
0
 10
-82.0972
 20
0.179306
 11
-81.5431
 21
-0.0897369
  0
LINE
  8
0
 10
-81.5431
 20
-0.0897369
 11
-80.9052
 21
-0.251175
  0
LINE
  8
0
 10
-80.9052
 20
-0.251175
 11
-80.1836
 21
-0.304993
  0
LINE
  8
0
 10
-80.1836
 20
-0.304993
 11
-79.8746
 21
-0.296936
  0
LINE
  8
0
 10
90.7115
 20
10.8982
 11
90.8314
 21
10.929
  0
LINE
  8
0
 10
90.8314
 20
10.929
 11
90.929
 21
10.9802
  0
LINE
  8
0
 10
90.929
 20
10.9802
 11
91.0046
 21
11.052
  0
LINE
  8
0
 10
91.0046
 20
11.052
 11
91.0611
 21
11.1477
  0
LINE
  8
0
 10
91.0611
 20
11.1477
 11
91.1014
 21
11.2697
  0
LINE
  8
0
 10
91.1014
 20
11.2697
 11
91.1255
 21
11.4182
  0
LINE
  8
0
 10
91.1255
 20
11.4182
 11
91.1336
 21
11.593
  0
LINE
  8
0
 10
91.1336
 20
11.593
 11
91.1336
 21
15.68
  0
LINE
  8
0
 10
91.1336
 20
15.68
 11
86.4826
 21
15.68
  0
LINE
  8
0
 10
86.4826
 20
15.68
 11
86.4826
 21
14.294
  0
LINE
  8
0
 10
86.4826
 20
14.294
 11
87.1212
 21
14.189
  0
LINE
  8
0
 10
87.1212
 20
14.189
 11
87.6981
 21
14.015
  0
LINE
  8
0
 10
87.6981
 20
14.015
 11
88.2132
 21
13.772
  0
LINE
  8
0
 10
88.2132
 20
13.772
 11
88.6666
 21
13.46
  0
LINE
  8
0
 10
88.6666
 20
13.46
 11
89.0647
 21
13.0717
  0
LINE
  8
0
 10
89.0647
 20
13.0717
 11
89.4129
 21
12.5997
  0
LINE
  8
0
 10
89.4129
 20
12.5997
 11
89.7112
 21
12.0442
  0
LINE
  8
0
 10
89.7112
 20
12.0442
 11
89.9596
 21
11.405
  0
LINE
  8
0
 10
89.9596
 20
11.405
 11
89.9624
 21
11.3782
  0
LINE
  8
0
 10
89.9624
 20
11.3782
 11
89.9706
 21
11.346
  0
LINE
  8
0
 10
89.9706
 20
11.346
 11
89.9856
 21
11.3137
  0
LINE
  8
0
 10
89.9856
 20
11.3137
 11
89.9954
 21
11.2997
  0
LINE
  8
0
 10
89.9954
 20
11.2997
 11
90.0066
 21
11.287
  0
LINE
  8
0
 10
90.0066
 20
11.287
 11
90.0546
 21
11.1791
  0
LINE
  8
0
 10
90.0546
 20
11.1791
 11
90.1056
 21
11.0902
  0
LINE
  8
0
 10
90.1056
 20
11.0902
 11
90.1596
 21
11.0206
  0
LINE
  8
0
 10
90.1596
 20
11.0206
 11
90.2166
 21
10.97
  0
LINE
  8
0
 10
90.2166
 20
10.97
 11
90.2829
 21
10.9341
  0
LINE
  8
0
 10
90.2829
 20
10.9341
 11
90.3639
 21
10.9085
  0
LINE
  8
0
 10
90.3639
 20
10.9085
 11
90.4594
 21
10.8931
  0
LINE
  8
0
 10
90.4594
 20
10.8931
 11
90.5696
 21
10.888
  0
LINE
  8
0
 10
90.5696
 20
10.888
 11
90.7115
 21
10.8982
  0
LINE
  8
0
 10
-2.88268
 20
12.098
 11
-2.86505
 21
12.5033
  0
LINE
  8
0
 10
-2.86505
 20
12.5033
 11
-2.81218
 21
12.8702
  0
LINE
  8
0
 10
-2.81218
 20
12.8702
 11
-2.72404
 21
13.1988
  0
LINE
  8
0
 10
-2.72404
 20
13.1988
 11
-2.60068
 21
13.489
  0
LINE
  8
0
 10
-2.60068
 20
13.489
 11
-2.44205
 21
13.7457
  0
LINE
  8
0
 10
-2.44205
 20
13.7457
 11
-2.24817
 21
13.9727
  0
LINE
  8
0
 10
-2.24817
 20
13.9727
 11
-2.01904
 21
14.1702
  0
LINE
  8
0
 10
-2.01904
 20
14.1702
 11
-1.75467
 21
14.338
  0
LINE
  8
0
 10
-1.75467
 20
14.338
 11
-1.43867
 21
14.503
  0
LINE
  8
0
 10
-1.43867
 20
14.503
 11
-1.37743
 21
14.5385
  0
LINE
  8
0
 10
-1.37743
 20
14.5385
 11
-1.32367
 21
14.574
  0
LINE
  8
0
 10
-1.32367
 20
14.574
 11
-1.27742
 21
14.6095
  0
LINE
  8
0
 10
-1.27742
 20
14.6095
 11
-1.23868
 21
14.645
  0
LINE
  8
0
 10
-1.23868
 20
14.645
 11
-1.20618
 21
14.6912
  0
LINE
  8
0
 10
-1.20618
 20
14.6912
 11
-1.17967
 21
14.736
  0
LINE
  8
0
 10
-1.17967
 20
14.736
 11
-1.15916
 21
14.7792
  0
LINE
  8
0
 10
-1.15916
 20
14.7792
 11
-1.14467
 21
14.821
  0
LINE
  8
0
 10
-1.14467
 20
14.821
 11
-1.13417
 21
14.8647
  0
LINE
  8
0
 10
-1.13417
 20
14.8647
 11
-1.12668
 21
14.9127
  0
LINE
  8
0
 10
-1.12668
 20
14.9127
 11
-1.12218
 21
14.9652
  0
LINE
  8
0
 10
-1.12218
 20
14.9652
 11
-1.12067
 21
15.022
  0
LINE
  8
0
 10
-1.12067
 20
15.022
 11
-1.13467
 21
15.1755
  0
LINE
  8
0
 10
-1.13467
 20
15.1755
 11
-1.17667
 21
15.307
  0
LINE
  8
0
 10
-1.17667
 20
15.307
 11
-1.24667
 21
15.4165
  0
LINE
  8
0
 10
-1.24667
 20
15.4165
 11
-1.34467
 21
15.504
  0
LINE
  8
0
 10
-1.34467
 20
15.504
 11
-1.47305
 21
15.5724
  0
LINE
  8
0
 10
-1.47305
 20
15.5724
 11
-1.63518
 21
15.6245
  0
LINE
  8
0
 10
-1.63518
 20
15.6245
 11
-1.83104
 21
15.6604
  0
LINE
  8
0
 10
-1.83104
 20
15.6604
 11
-2.06067
 21
15.68
  0
LINE
  8
0
 10
-2.06067
 20
15.68
 11
-4.92567
 21
15.657
  0
LINE
  8
0
 10
-4.92567
 20
15.657
 11
-5.13373
 21
15.6482
  0
LINE
  8
0
 10
-5.13373
 20
15.6482
 11
-5.31093
 21
15.6217
  0
LINE
  8
0
 10
-5.31093
 20
15.6217
 11
-5.45723
 21
15.5777
  0
LINE
  8
0
 10
-5.45723
 20
15.5777
 11
-5.57268
 21
15.516
  0
LINE
  8
0
 10
-5.57268
 20
15.516
 11
-5.65973
 21
15.4352
  0
LINE
  8
0
 10
-5.65973
 20
15.4352
 11
-5.72192
 21
15.3337
  0
LINE
  8
0
 10
-5.72192
 20
15.3337
 11
-5.75923
 21
15.2117
  0
LINE
  8
0
 10
-5.75923
 20
15.2117
 11
-5.77167
 21
15.069
  0
LINE
  8
0
 10
-5.77167
 20
15.069
 11
-5.7673
 21
14.9689
  0
LINE
  8
0
 10
-5.7673
 20
14.9689
 11
-5.75417
 21
14.8805
  0
LINE
  8
0
 10
-5.75417
 20
14.8805
 11
-5.7323
 21
14.8039
  0
LINE
  8
0
 10
-5.7323
 20
14.8039
 11
-5.70168
 21
14.739
  0
LINE
  8
0
 10
-5.70168
 20
14.739
 11
-5.66035
 21
14.6815
  0
LINE
  8
0
 10
-5.66035
 20
14.6815
 11
-5.60742
 21
14.627
  0
LINE
  8
0
 10
-5.60742
 20
14.627
 11
-5.54286
 21
14.5755
  0
LINE
  8
0
 10
-5.54286
 20
14.5755
 11
-5.46667
 21
14.527
  0
LINE
  8
0
 10
-5.46667
 20
14.527
 11
-5.45398
 21
14.5157
  0
LINE
  8
0
 10
-5.45398
 20
14.5157
 11
-5.42448
 21
14.4977
  0
LINE
  8
0
 10
-5.42448
 20
14.4977
 11
-5.39085
 21
14.4847
  0
LINE
  8
0
 10
-5.39085
 20
14.4847
 11
-5.37543
 21
14.4767
  0
LINE
  8
0
 10
-5.37543
 20
14.4767
 11
-5.36136
 21
14.4672
  0
LINE
  8
0
 10
-5.36136
 20
14.4672
 11
-5.34868
 21
14.456
  0
LINE
  8
0
 10
-5.34868
 20
14.456
 11
-5.02304
 21
14.2687
  0
LINE
  8
0
 10
-5.02304
 20
14.2687
 11
-4.75017
 21
14.0607
  0
LINE
  8
0
 10
-4.75017
 20
14.0607
 11
-4.53004
 21
13.8322
  0
LINE
  8
0
 10
-4.53004
 20
13.8322
 11
-4.36267
 21
13.583
  0
LINE
  8
0
 10
-4.36267
 20
13.583
 11
-4.2393
 21
13.2974
  0
LINE
  8
0
 10
-4.2393
 20
13.2974
 11
-4.15117
 21
12.9587
  0
LINE
  8
0
 10
-4.15117
 20
12.9587
 11
-4.0983
 21
12.5669
  0
LINE
  8
0
 10
-4.0983
 20
12.5669
 11
-4.08067
 21
12.122
  0
LINE
  8
0
 10
-4.08067
 20
12.122
 11
-4.08067
 21
8.939
  0
LINE
  8
0
 10
-4.08067
 20
8.939
 11
-2.88268
 21
6.88799
  0
LINE
  8
0
 10
-2.88268
 20
6.88799
 11
-2.88268
 21
12.098
  0
LINE
  8
0
 10
-37.563
 20
0.00880432
 11
-37.3962
 21
0.0352478
  0
LINE
  8
0
 10
-37.3962
 20
0.0352478
 11
-37.2516
 21
0.0792999
  0
LINE
  8
0
 10
-37.2516
 20
0.0792999
 11
-37.129
 21
0.140991
  0
LINE
  8
0
 10
-37.129
 20
0.140991
 11
-37.0314
 21
0.218811
  0
LINE
  8
0
 10
-37.0314
 20
0.218811
 11
-36.9617
 21
0.311249
  0
LINE
  8
0
 10
-36.9617
 20
0.311249
 11
-36.9199
 21
0.418304
  0
LINE
  8
0
 10
-36.9199
 20
0.418304
 11
-36.906
 21
0.539993
  0
LINE
  8
0
 10
-36.906
 20
0.539993
 11
-36.9127
 21
0.631805
  0
LINE
  8
0
 10
-36.9127
 20
0.631805
 11
-36.933
 21
0.719238
  0
LINE
  8
0
 10
-36.933
 20
0.719238
 11
-36.9667
 21
0.802307
  0
LINE
  8
0
 10
-36.9667
 20
0.802307
 11
-37.014
 21
0.880997
  0
LINE
  8
0
 10
-37.014
 20
0.880997
 11
-37.0727
 21
0.955246
  0
LINE
  8
0
 10
-37.0727
 20
0.955246
 11
-37.142
 21
1.02499
  0
LINE
  8
0
 10
-37.142
 20
1.02499
 11
-37.2217
 21
1.09024
  0
LINE
  8
0
 10
-37.2217
 20
1.09024
 11
-37.312
 21
1.15099
  0
LINE
  8
0
 10
-37.312
 20
1.15099
 11
-37.695
 21
1.31499
  0
LINE
  8
0
 10
-37.695
 20
1.31499
 11
-37.8523
 21
1.39355
  0
LINE
  8
0
 10
-37.8523
 20
1.39355
 11
-37.9902
 21
1.48824
  0
LINE
  8
0
 10
-37.9902
 20
1.48824
 11
-38.1088
 21
1.59906
  0
LINE
  8
0
 10
-38.1088
 20
1.59906
 11
-38.208
 21
1.726
  0
LINE
  8
0
 10
-38.208
 20
1.726
 11
-38.2859
 21
1.86469
  0
LINE
  8
0
 10
-38.2859
 20
1.86469
 11
-38.3415
 21
2.01074
  0
LINE
  8
0
 10
-38.3415
 20
2.01074
 11
-38.3749
 21
2.16418
  0
LINE
  8
0
 10
-38.3749
 20
2.16418
 11
-38.386
 21
2.325
  0
LINE
  8
0
 10
-38.386
 20
2.325
 11
-38.386
 21
2.478
  0
LINE
  8
0
 10
-38.386
 20
2.478
 11
-38.3846
 21
2.51831
  0
LINE
  8
0
 10
-38.3846
 20
2.51831
 11
-38.3802
 21
2.55724
  0
LINE
  8
0
 10
-38.3802
 20
2.55724
 11
-38.3731
 21
2.5948
  0
LINE
  8
0
 10
-38.3731
 20
2.5948
 11
-38.363
 21
2.631
  0
LINE
  8
0
 10
-38.363
 20
2.631
 11
-38.36
 21
2.70399
  0
LINE
  8
0
 10
-38.36
 20
2.70399
 11
-38.351
 21
2.78299
  0
LINE
  8
0
 10
-38.351
 20
2.78299
 11
-38.3362
 21
2.8685
  0
LINE
  8
0
 10
-38.3362
 20
2.8685
 11
-38.316
 21
2.959
  0
LINE
  8
0
 10
-38.316
 20
2.959
 11
-36.272
 21
10.358
  0
LINE
  8
0
 10
-36.272
 20
10.358
 11
-36.859
 21
12.73
  0
LINE
  8
0
 10
-36.859
 20
12.73
 11
-39.435
 21
3.265
  0
LINE
  8
0
 10
-39.435
 20
3.265
 11
-39.5581
 21
2.84787
  0
LINE
  8
0
 10
-39.5581
 20
2.84787
 11
-39.6942
 21
2.48949
  0
LINE
  8
0
 10
-39.6942
 20
2.48949
 11
-39.8436
 21
2.18987
  0
LINE
  8
0
 10
-39.8436
 20
2.18987
 11
-40.006
 21
1.94899
  0
LINE
  8
0
 10
-40.006
 20
1.94899
 11
-40.1991
 21
1.7438
  0
LINE
  8
0
 10
-40.1991
 20
1.7438
 11
-40.4402
 21
1.55025
  0
LINE
  8
0
 10
-40.4402
 20
1.55025
 11
-40.7296
 21
1.3683
  0
LINE
  8
0
 10
-40.7296
 20
1.3683
 11
-41.067
 21
1.198
  0
LINE
  8
0
 10
-41.067
 20
1.198
 11
-41.1968
 21
1.13799
  0
LINE
  8
0
 10
-41.1968
 20
1.13799
 11
-41.3062
 21
1.075
  0
LINE
  8
0
 10
-41.3062
 20
1.075
 11
-41.3953
 21
1.00899
  0
LINE
  8
0
 10
-41.3953
 20
1.00899
 11
-41.464
 21
0.939987
  0
LINE
  8
0
 10
-41.464
 20
0.939987
 11
-41.5147
 21
0.866562
  0
LINE
  8
0
 10
-41.5147
 20
0.866562
 11
-41.551
 21
0.787247
  0
LINE
  8
0
 10
-41.551
 20
0.787247
 11
-41.5727
 21
0.702057
  0
LINE
  8
0
 10
-41.5727
 20
0.702057
 11
-41.58
 21
0.610992
  0
LINE
  8
0
 10
-41.58
 20
0.610992
 11
-41.5639
 21
0.47731
  0
LINE
  8
0
 10
-41.5639
 20
0.47731
 11
-41.5155
 21
0.358246
  0
LINE
  8
0
 10
-41.5155
 20
0.358246
 11
-41.4349
 21
0.253799
  0
LINE
  8
0
 10
-41.4349
 20
0.253799
 11
-41.322
 21
0.163986
  0
LINE
  8
0
 10
-41.322
 20
0.163986
 11
-41.1837
 21
0.0922394
  0
LINE
  8
0
 10
-41.1837
 20
0.0922394
 11
-41.028
 21
0.0409851
  0
LINE
  8
0
 10
-41.028
 20
0.0409851
 11
-40.8547
 21
0.0102386
  0
LINE
  8
0
 10
-40.8547
 20
0.0102386
 11
-40.664
 21
0
  0
LINE
  8
0
 10
-40.664
 20
0
 11
-37.752
 21
0
  0
LINE
  8
0
 10
-37.752
 20
0
 11
-37.563
 21
0.00880432
  0
LINE
  8
0
 10
-11.5395
 20
0.00805664
 11
-11.3289
 21
0.0322418
  0
LINE
  8
0
 10
-11.3289
 20
0.0322418
 11
-11.158
 21
0.0725555
  0
LINE
  8
0
 10
-11.158
 20
0.0725555
 11
-11.0267
 21
0.128998
  0
LINE
  8
0
 10
-11.0267
 20
0.128998
 11
-10.9291
 21
0.204926
  0
LINE
  8
0
 10
-10.9291
 20
0.204926
 11
-10.8594
 21
0.30275
  0
LINE
  8
0
 10
-10.8594
 20
0.30275
 11
-10.8176
 21
0.422424
  0
LINE
  8
0
 10
-10.8176
 20
0.422424
 11
-10.8037
 21
0.563995
  0
LINE
  8
0
 10
-10.8037
 20
0.563995
 11
-10.8081
 21
0.643799
  0
LINE
  8
0
 10
-10.8081
 20
0.643799
 11
-10.8214
 21
0.719238
  0
LINE
  8
0
 10
-10.8214
 20
0.719238
 11
-10.8436
 21
0.790298
  0
LINE
  8
0
 10
-10.8436
 20
0.790298
 11
-10.8747
 21
0.856995
  0
LINE
  8
0
 10
-10.8747
 20
0.856995
 11
-10.9155
 21
0.921173
  0
LINE
  8
0
 10
-10.9155
 20
0.921173
 11
-10.9682
 21
0.983749
  0
LINE
  8
0
 10
-10.9682
 20
0.983749
 11
-11.0325
 21
1.04468
  0
LINE
  8
0
 10
-11.0325
 20
1.04468
 11
-11.1087
 21
1.10399
  0
LINE
  8
0
 10
-11.1087
 20
1.10399
 11
-11.4377
 21
1.269
  0
LINE
  8
0
 10
-11.4377
 20
1.269
 11
-11.7114
 21
1.44574
  0
LINE
  8
0
 10
-11.7114
 20
1.44574
 11
-11.9454
 21
1.646
  0
LINE
  8
0
 10
-11.9454
 20
1.646
 11
-12.1399
 21
1.86974
  0
LINE
  8
0
 10
-12.1399
 20
1.86974
 11
-12.2947
 21
2.11699
  0
LINE
  8
0
 10
-12.2947
 20
2.11699
 11
-12.4128
 21
2.39511
  0
LINE
  8
0
 10
-12.4128
 20
2.39511
 11
-12.4972
 21
2.71149
  0
LINE
  8
0
 10
-12.4972
 20
2.71149
 11
-12.5478
 21
3.06612
  0
LINE
  8
0
 10
-12.5478
 20
3.06612
 11
-12.5647
 21
3.459
  0
LINE
  8
0
 10
-12.5647
 20
3.459
 11
-12.5647
 21
9.629
  0
LINE
  8
0
 10
-12.5647
 20
9.629
 11
-13.7627
 21
11.678
  0
LINE
  8
0
 10
-13.7627
 20
11.678
 11
-13.7627
 21
3.435
  0
LINE
  8
0
 10
-13.7627
 20
3.435
 11
-13.7796
 21
3.05067
  0
LINE
  8
0
 10
-13.7796
 20
3.05067
 11
-13.8304
 21
2.69875
  0
LINE
  8
0
 10
-13.8304
 20
2.69875
 11
-13.9151
 21
2.37918
  0
LINE
  8
0
 10
-13.9151
 20
2.37918
 11
-14.0337
 21
2.092
  0
LINE
  8
0
 10
-14.0337
 20
2.092
 11
-14.187
 21
1.83469
  0
LINE
  8
0
 10
-14.187
 20
1.83469
 11
-14.3769
 21
1.60374
  0
LINE
  8
0
 10
-14.3769
 20
1.60374
 11
-14.6035
 21
1.39919
  0
LINE
  8
0
 10
-14.6035
 20
1.39919
 11
-14.8667
 21
1.22099
  0
LINE
  8
0
 10
-14.8667
 20
1.22099
 11
-15.0372
 21
1.11249
  0
LINE
  8
0
 10
-15.0372
 20
1.11249
 11
-15.1727
 21
1.021
  0
LINE
  8
0
 10
-15.1727
 20
1.021
 11
-15.2283
 21
0.980743
  0
LINE
  8
0
 10
-15.2283
 20
0.980743
 11
-15.2782
 21
0.941986
  0
LINE
  8
0
 10
-15.2782
 20
0.941986
 11
-15.3223
 21
0.904739
  0
LINE
  8
0
 10
-15.3223
 20
0.904739
 11
-15.3607
 21
0.868988
  0
LINE
  8
0
 10
-15.3607
 20
0.868988
 11
-15.3827
 21
0.843994
  0
LINE
  8
0
 10
-15.3827
 20
0.843994
 11
-15.4017
 21
0.815994
  0
LINE
  8
0
 10
-15.4017
 20
0.815994
 11
-15.4177
 21
0.784988
  0
LINE
  8
0
 10
-15.4177
 20
0.784988
 11
-15.4307
 21
0.750992
  0
LINE
  8
0
 10
-15.4307
 20
0.750992
 11
-15.4407
 21
0.714493
  0
LINE
  8
0
 10
-15.4407
 20
0.714493
 11
-15.4479
 21
0.674988
  0
LINE
  8
0
 10
-15.4479
 20
0.674988
 11
-15.4522
 21
0.632492
  0
LINE
  8
0
 10
-15.4522
 20
0.632492
 11
-15.4537
 21
0.58699
  0
LINE
  8
0
 10
-15.4537
 20
0.58699
 11
-15.4375
 21
0.444748
  0
LINE
  8
0
 10
-15.4375
 20
0.444748
 11
-15.3892
 21
0.322998
  0
LINE
  8
0
 10
-15.3892
 20
0.322998
 11
-15.3085
 21
0.221741
  0
LINE
  8
0
 10
-15.3085
 20
0.221741
 11
-15.1957
 21
0.140991
  0
LINE
  8
0
 10
-15.1957
 20
0.140991
 11
-15.0505
 21
0.0792999
  0
LINE
  8
0
 10
-15.0505
 20
0.0792999
 11
-14.8729
 21
0.0352478
  0
LINE
  8
0
 10
-14.8729
 20
0.0352478
 11
-14.663
 21
0.00880432
  0
LINE
  8
0
 10
-14.663
 20
0.00880432
 11
-14.4207
 21
0
  0
LINE
  8
0
 10
-14.4207
 20
0
 11
-11.7897
 21
0
  0
LINE
  8
0
 10
-11.7897
 20
0
 11
-11.5395
 21
0.00805664
  0
LINE
  8
0
 10
14.9416
 20
0.00805664
 11
15.1522
 21
0.0322418
  0
LINE
  8
0
 10
15.1522
 20
0.0322418
 11
15.3231
 21
0.0725555
  0
LINE
  8
0
 10
15.3231
 20
0.0725555
 11
15.4544
 21
0.128998
  0
LINE
  8
0
 10
15.4544
 20
0.128998
 11
15.552
 21
0.204926
  0
LINE
  8
0
 10
15.552
 20
0.204926
 11
15.6217
 21
0.30275
  0
LINE
  8
0
 10
15.6217
 20
0.30275
 11
15.6635
 21
0.422424
  0
LINE
  8
0
 10
15.6635
 20
0.422424
 11
15.6774
 21
0.563995
  0
LINE
  8
0
 10
15.6774
 20
0.563995
 11
15.673
 21
0.643799
  0
LINE
  8
0
 10
15.673
 20
0.643799
 11
15.6597
 21
0.719238
  0
LINE
  8
0
 10
15.6597
 20
0.719238
 11
15.6375
 21
0.790298
  0
LINE
  8
0
 10
15.6375
 20
0.790298
 11
15.6064
 21
0.856995
  0
LINE
  8
0
 10
15.6064
 20
0.856995
 11
15.5655
 21
0.921173
  0
LINE
  8
0
 10
15.5655
 20
0.921173
 11
15.5129
 21
0.983749
  0
LINE
  8
0
 10
15.5129
 20
0.983749
 11
15.4485
 21
1.04468
  0
LINE
  8
0
 10
15.4485
 20
1.04468
 11
15.3724
 21
1.10399
  0
LINE
  8
0
 10
15.3724
 20
1.10399
 11
15.0434
 21
1.269
  0
LINE
  8
0
 10
15.0434
 20
1.269
 11
14.7697
 21
1.44574
  0
LINE
  8
0
 10
14.7697
 20
1.44574
 11
14.5357
 21
1.646
  0
LINE
  8
0
 10
14.5357
 20
1.646
 11
14.3412
 21
1.86974
  0
LINE
  8
0
 10
14.3412
 20
1.86974
 11
14.1864
 21
2.11699
  0
LINE
  8
0
 10
14.1864
 20
2.11699
 11
14.0683
 21
2.39511
  0
LINE
  8
0
 10
14.0683
 20
2.39511
 11
13.9839
 21
2.71149
  0
LINE
  8
0
 10
13.9839
 20
2.71149
 11
13.9333
 21
3.06612
  0
LINE
  8
0
 10
13.9333
 20
3.06612
 11
13.9164
 21
3.459
  0
LINE
  8
0
 10
13.9164
 20
3.459
 11
13.9164
 21
9.629
  0
LINE
  8
0
 10
13.9164
 20
9.629
 11
12.7184
 21
11.678
  0
LINE
  8
0
 10
12.7184
 20
11.678
 11
12.7184
 21
3.435
  0
LINE
  8
0
 10
12.7184
 20
3.435
 11
12.7015
 21
3.05067
  0
LINE
  8
0
 10
12.7015
 20
3.05067
 11
12.6507
 21
2.69875
  0
LINE
  8
0
 10
12.6507
 20
2.69875
 11
12.566
 21
2.37918
  0
LINE
  8
0
 10
12.566
 20
2.37918
 11
12.4474
 21
2.092
  0
LINE
  8
0
 10
12.4474
 20
2.092
 11
12.2941
 21
1.83469
  0
LINE
  8
0
 10
12.2941
 20
1.83469
 11
12.1042
 21
1.60374
  0
LINE
  8
0
 10
12.1042
 20
1.60374
 11
11.8776
 21
1.39919
  0
LINE
  8
0
 10
11.8776
 20
1.39919
 11
11.6144
 21
1.22099
  0
LINE
  8
0
 10
11.6144
 20
1.22099
 11
11.4439
 21
1.11249
  0
LINE
  8
0
 10
11.4439
 20
1.11249
 11
11.3084
 21
1.021
  0
LINE
  8
0
 10
11.3084
 20
1.021
 11
11.2528
 21
0.980743
  0
LINE
  8
0
 10
11.2528
 20
0.980743
 11
11.2029
 21
0.941986
  0
LINE
  8
0
 10
11.2029
 20
0.941986
 11
11.1588
 21
0.904739
  0
LINE
  8
0
 10
11.1588
 20
0.904739
 11
11.1204
 21
0.868988
  0
LINE
  8
0
 10
11.1204
 20
0.868988
 11
11.0984
 21
0.843994
  0
LINE
  8
0
 10
11.0984
 20
0.843994
 11
11.0794
 21
0.815994
  0
LINE
  8
0
 10
11.0794
 20
0.815994
 11
11.0634
 21
0.784988
  0
LINE
  8
0
 10
11.0634
 20
0.784988
 11
11.0504
 21
0.750992
  0
LINE
  8
0
 10
11.0504
 20
0.750992
 11
11.0403
 21
0.714493
  0
LINE
  8
0
 10
11.0403
 20
0.714493
 11
11.0332
 21
0.674988
  0
LINE
  8
0
 10
11.0332
 20
0.674988
 11
11.0288
 21
0.632492
  0
LINE
  8
0
 10
11.0288
 20
0.632492
 11
11.0274
 21
0.58699
  0
LINE
  8
0
 10
11.0274
 20
0.58699
 11
11.0435
 21
0.444748
  0
LINE
  8
0
 10
11.0435
 20
0.444748
 11
11.0919
 21
0.322998
  0
LINE
  8
0
 10
11.0919
 20
0.322998
 11
11.1725
 21
0.221741
  0
LINE
  8
0
 10
11.1725
 20
0.221741
 11
11.2854
 21
0.140991
  0
LINE
  8
0
 10
11.2854
 20
0.140991
 11
11.4306
 21
0.0792999
  0
LINE
  8
0
 10
11.4306
 20
0.0792999
 11
11.6082
 21
0.0352478
  0
LINE
  8
0
 10
11.6082
 20
0.0352478
 11
11.8181
 21
0.00880432
  0
LINE
  8
0
 10
11.8181
 20
0.00880432
 11
12.0604
 21
0
  0
LINE
  8
0
 10
12.0604
 20
0
 11
14.6914
 21
0
  0
LINE
  8
0
 10
14.6914
 20
0
 11
14.9416
 21
0.00805664
  0
LINE
  8
0
 10
59.4201
 20
4.84242
 11
59.5448
 21
4.87975
  0
LINE
  8
0
 10
59.5448
 20
4.87975
 11
59.6431
 21
4.94193
  0
LINE
  8
0
 10
59.6431
 20
4.94193
 11
59.7148
 21
5.02899
  0
LINE
  8
0
 10
59.7148
 20
5.02899
 11
59.7664
 21
5.15175
  0
LINE
  8
0
 10
59.7664
 20
5.15175
 11
59.8033
 21
5.31999
  0
LINE
  8
0
 10
59.8033
 20
5.31999
 11
59.8254
 21
5.53374
  0
LINE
  8
0
 10
59.8254
 20
5.53374
 11
59.8328
 21
5.793
  0
LINE
  8
0
 10
59.8328
 20
5.793
 11
59.8328
 21
10.114
  0
LINE
  8
0
 10
59.8328
 20
10.114
 11
59.8254
 21
10.3732
  0
LINE
  8
0
 10
59.8254
 20
10.3732
 11
59.8033
 21
10.5867
  0
LINE
  8
0
 10
59.8033
 20
10.5867
 11
59.7664
 21
10.7547
  0
LINE
  8
0
 10
59.7664
 20
10.7547
 11
59.7148
 21
10.877
  0
LINE
  8
0
 10
59.7148
 20
10.877
 11
59.6431
 21
10.9645
  0
LINE
  8
0
 10
59.6431
 20
10.9645
 11
59.5448
 21
11.027
  0
LINE
  8
0
 10
59.5448
 20
11.027
 11
59.4201
 21
11.0645
  0
LINE
  8
0
 10
59.4201
 20
11.0645
 11
59.2688
 21
11.077
  0
LINE
  8
0
 10
59.2688
 20
11.077
 11
59.1269
 21
11.0667
  0
LINE
  8
0
 10
59.1269
 20
11.0667
 11
59.007
 21
11.036
  0
LINE
  8
0
 10
59.007
 20
11.036
 11
58.9094
 21
10.9847
  0
LINE
  8
0
 10
58.9094
 20
10.9847
 11
58.8338
 21
10.913
  0
LINE
  8
0
 10
58.8338
 20
10.913
 11
58.77
 21
10.8133
  0
LINE
  8
0
 10
58.77
 20
10.8133
 11
58.7076
 21
10.6782
  0
LINE
  8
0
 10
58.7076
 20
10.6782
 11
58.6465
 21
10.5078
  0
LINE
  8
0
 10
58.6465
 20
10.5078
 11
58.5868
 21
10.302
  0
LINE
  8
0
 10
58.5868
 20
10.302
 11
58.5052
 21
10.0019
  0
LINE
  8
0
 10
58.5052
 20
10.0019
 11
58.4016
 21
9.73549
  0
LINE
  8
0
 10
58.4016
 20
9.73549
 11
58.2757
 21
9.50287
  0
LINE
  8
0
 10
58.2757
 20
9.50287
 11
58.1278
 21
9.30399
  0
LINE
  8
0
 10
58.1278
 20
9.30399
 11
57.948
 21
9.12569
  0
LINE
  8
0
 10
57.948
 20
9.12569
 11
57.7256
 21
8.95474
  0
LINE
  8
0
 10
57.7256
 20
8.95474
 11
57.4605
 21
8.79118
  0
LINE
  8
0
 10
57.4605
 20
8.79118
 11
57.1528
 21
8.63499
  0
LINE
  8
0
 10
57.1528
 20
8.63499
 11
57.1528
 21
7.29599
  0
LINE
  8
0
 10
57.1528
 20
7.29599
 11
57.4216
 21
7.20787
  0
LINE
  8
0
 10
57.4216
 20
7.20787
 11
57.6638
 21
7.08449
  0
LINE
  8
0
 10
57.6638
 20
7.08449
 11
57.8796
 21
6.92587
  0
LINE
  8
0
 10
57.8796
 20
6.92587
 11
58.0688
 21
6.73199
  0
LINE
  8
0
 10
58.0688
 20
6.73199
 11
58.2351
 21
6.49744
  0
LINE
  8
0
 10
58.2351
 20
6.49744
 11
58.3808
 21
6.21574
  0
LINE
  8
0
 10
58.3808
 20
6.21574
 11
58.5061
 21
5.88693
  0
LINE
  8
0
 10
58.5061
 20
5.88693
 11
58.6108
 21
5.51099
  0
LINE
  8
0
 10
58.6108
 20
5.51099
 11
58.6708
 21
5.33693
  0
LINE
  8
0
 10
58.6708
 20
5.33693
 11
58.7338
 21
5.19073
  0
LINE
  8
0
 10
58.7338
 20
5.19073
 11
58.7998
 21
5.07243
  0
LINE
  8
0
 10
58.7998
 20
5.07243
 11
58.8688
 21
4.98199
  0
LINE
  8
0
 10
58.8688
 20
4.98199
 11
58.9467
 21
4.9155
  0
LINE
  8
0
 10
58.9467
 20
4.9155
 11
59.0393
 21
4.868
  0
LINE
  8
0
 10
59.0393
 20
4.868
 11
59.1467
 21
4.83949
  0
LINE
  8
0
 10
59.1467
 20
4.83949
 11
59.2688
 21
4.82999
  0
LINE
  8
0
 10
59.2688
 20
4.82999
 11
59.4201
 21
4.84242
  0
LINE
  8
0
 10
-65.0605
 20
4.84242
 11
-64.9357
 21
4.87975
  0
LINE
  8
0
 10
-64.9357
 20
4.87975
 11
-64.8375
 21
4.94193
  0
LINE
  8
0
 10
-64.8375
 20
4.94193
 11
-64.7657
 21
5.02899
  0
LINE
  8
0
 10
-64.7657
 20
5.02899
 11
-64.7141
 21
5.15175
  0
LINE
  8
0
 10
-64.7141
 20
5.15175
 11
-64.6772
 21
5.31999
  0
LINE
  8
0
 10
-64.6772
 20
5.31999
 11
-64.6551
 21
5.53374
  0
LINE
  8
0
 10
-64.6551
 20
5.53374
 11
-64.6477
 21
5.793
  0
LINE
  8
0
 10
-64.6477
 20
5.793
 11
-64.6477
 21
10.114
  0
LINE
  8
0
 10
-64.6477
 20
10.114
 11
-64.6551
 21
10.3732
  0
LINE
  8
0
 10
-64.6551
 20
10.3732
 11
-64.6772
 21
10.5867
  0
LINE
  8
0
 10
-64.6772
 20
10.5867
 11
-64.7141
 21
10.7547
  0
LINE
  8
0
 10
-64.7141
 20
10.7547
 11
-64.7657
 21
10.877
  0
LINE
  8
0
 10
-64.7657
 20
10.877
 11
-64.8375
 21
10.9645
  0
LINE
  8
0
 10
-64.8375
 20
10.9645
 11
-64.9357
 21
11.027
  0
LINE
  8
0
 10
-64.9357
 20
11.027
 11
-65.0605
 21
11.0645
  0
LINE
  8
0
 10
-65.0605
 20
11.0645
 11
-65.2117
 21
11.077
  0
LINE
  8
0
 10
-65.2117
 20
11.077
 11
-65.3537
 21
11.0667
  0
LINE
  8
0
 10
-65.3537
 20
11.0667
 11
-65.4735
 21
11.036
  0
LINE
  8
0
 10
-65.4735
 20
11.036
 11
-65.5712
 21
10.9847
  0
LINE
  8
0
 10
-65.5712
 20
10.9847
 11
-65.6467
 21
10.913
  0
LINE
  8
0
 10
-65.6467
 20
10.913
 11
-65.7105
 21
10.8133
  0
LINE
  8
0
 10
-65.7105
 20
10.8133
 11
-65.773
 21
10.6782
  0
LINE
  8
0
 10
-65.773
 20
10.6782
 11
-65.834
 21
10.5078
  0
LINE
  8
0
 10
-65.834
 20
10.5078
 11
-65.8937
 21
10.302
  0
LINE
  8
0
 10
-65.8937
 20
10.302
 11
-65.9753
 21
10.0019
  0
LINE
  8
0
 10
-65.9753
 20
10.0019
 11
-66.079
 21
9.73549
  0
LINE
  8
0
 10
-66.079
 20
9.73549
 11
-66.2048
 21
9.50287
  0
LINE
  8
0
 10
-66.2048
 20
9.50287
 11
-66.3527
 21
9.30399
  0
LINE
  8
0
 10
-66.3527
 20
9.30399
 11
-66.5325
 21
9.12569
  0
LINE
  8
0
 10
-66.5325
 20
9.12569
 11
-66.755
 21
8.95474
  0
LINE
  8
0
 10
-66.755
 20
8.95474
 11
-67.02
 21
8.79118
  0
LINE
  8
0
 10
-67.02
 20
8.79118
 11
-67.3277
 21
8.63499
  0
LINE
  8
0
 10
-67.3277
 20
8.63499
 11
-67.3277
 21
7.29599
  0
LINE
  8
0
 10
-67.3277
 20
7.29599
 11
-67.059
 21
7.20787
  0
LINE
  8
0
 10
-67.059
 20
7.20787
 11
-66.8167
 21
7.08449
  0
LINE
  8
0
 10
-66.8167
 20
7.08449
 11
-66.601
 21
6.92587
  0
LINE
  8
0
 10
-66.601
 20
6.92587
 11
-66.4117
 21
6.73199
  0
LINE
  8
0
 10
-66.4117
 20
6.73199
 11
-66.2455
 21
6.49744
  0
LINE
  8
0
 10
-66.2455
 20
6.49744
 11
-66.0997
 21
6.21574
  0
LINE
  8
0
 10
-66.0997
 20
6.21574
 11
-65.9745
 21
5.88693
  0
LINE
  8
0
 10
-65.9745
 20
5.88693
 11
-65.8697
 21
5.51099
  0
LINE
  8
0
 10
-65.8697
 20
5.51099
 11
-65.8097
 21
5.33693
  0
LINE
  8
0
 10
-65.8097
 20
5.33693
 11
-65.7467
 21
5.19073
  0
LINE
  8
0
 10
-65.7467
 20
5.19073
 11
-65.6807
 21
5.07243
  0
LINE
  8
0
 10
-65.6807
 20
5.07243
 11
-65.6117
 21
4.98199
  0
LINE
  8
0
 10
-65.6117
 20
4.98199
 11
-65.5339
 21
4.9155
  0
LINE
  8
0
 10
-65.5339
 20
4.9155
 11
-65.4412
 21
4.868
  0
LINE
  8
0
 10
-65.4412
 20
4.868
 11
-65.3338
 21
4.83949
  0
LINE
  8
0
 10
-65.3338
 20
4.83949
 11
-65.2117
 21
4.82999
  0
LINE
  8
0
 10
-65.2117
 20
4.82999
 11
-65.0605
 21
4.84242
  0
LINE
  8
0
 10
88.7499
 20
4.84242
 11
88.8746
 21
4.87975
  0
LINE
  8
0
 10
88.8746
 20
4.87975
 11
88.9729
 21
4.94193
  0
LINE
  8
0
 10
88.9729
 20
4.94193
 11
89.0446
 21
5.02899
  0
LINE
  8
0
 10
89.0446
 20
5.02899
 11
89.0962
 21
5.15175
  0
LINE
  8
0
 10
89.0962
 20
5.15175
 11
89.1331
 21
5.31999
  0
LINE
  8
0
 10
89.1331
 20
5.31999
 11
89.1552
 21
5.53374
  0
LINE
  8
0
 10
89.1552
 20
5.53374
 11
89.1626
 21
5.793
  0
LINE
  8
0
 10
89.1626
 20
5.793
 11
89.1626
 21
10.114
  0
LINE
  8
0
 10
89.1626
 20
10.114
 11
89.1552
 21
10.3732
  0
LINE
  8
0
 10
89.1552
 20
10.3732
 11
89.1331
 21
10.5867
  0
LINE
  8
0
 10
89.1331
 20
10.5867
 11
89.0962
 21
10.7547
  0
LINE
  8
0
 10
89.0962
 20
10.7547
 11
89.0446
 21
10.877
  0
LINE
  8
0
 10
89.0446
 20
10.877
 11
88.9729
 21
10.9645
  0
LINE
  8
0
 10
88.9729
 20
10.9645
 11
88.8746
 21
11.027
  0
LINE
  8
0
 10
88.8746
 20
11.027
 11
88.7499
 21
11.0645
  0
LINE
  8
0
 10
88.7499
 20
11.0645
 11
88.5986
 21
11.077
  0
LINE
  8
0
 10
88.5986
 20
11.077
 11
88.4567
 21
11.0667
  0
LINE
  8
0
 10
88.4567
 20
11.0667
 11
88.3369
 21
11.036
  0
LINE
  8
0
 10
88.3369
 20
11.036
 11
88.2392
 21
10.9847
  0
LINE
  8
0
 10
88.2392
 20
10.9847
 11
88.1636
 21
10.913
  0
LINE
  8
0
 10
88.1636
 20
10.913
 11
88.0998
 21
10.8133
  0
LINE
  8
0
 10
88.0998
 20
10.8133
 11
88.0374
 21
10.6782
  0
LINE
  8
0
 10
88.0374
 20
10.6782
 11
87.9763
 21
10.5078
  0
LINE
  8
0
 10
87.9763
 20
10.5078
 11
87.9166
 21
10.302
  0
LINE
  8
0
 10
87.9166
 20
10.302
 11
87.8351
 21
10.0019
  0
LINE
  8
0
 10
87.8351
 20
10.0019
 11
87.7314
 21
9.73549
  0
LINE
  8
0
 10
87.7314
 20
9.73549
 11
87.6055
 21
9.50287
  0
LINE
  8
0
 10
87.6055
 20
9.50287
 11
87.4576
 21
9.30399
  0
LINE
  8
0
 10
87.4576
 20
9.30399
 11
87.2778
 21
9.12569
  0
LINE
  8
0
 10
87.2778
 20
9.12569
 11
87.0554
 21
8.95474
  0
LINE
  8
0
 10
87.0554
 20
8.95474
 11
86.7903
 21
8.79118
  0
LINE
  8
0
 10
86.7903
 20
8.79118
 11
86.4826
 21
8.63499
  0
LINE
  8
0
 10
86.4826
 20
8.63499
 11
86.4826
 21
7.29599
  0
LINE
  8
0
 10
86.4826
 20
7.29599
 11
86.7514
 21
7.20787
  0
LINE
  8
0
 10
86.7514
 20
7.20787
 11
86.9936
 21
7.08449
  0
LINE
  8
0
 10
86.9936
 20
7.08449
 11
87.2094
 21
6.92587
  0
LINE
  8
0
 10
87.2094
 20
6.92587
 11
87.3986
 21
6.73199
  0
LINE
  8
0
 10
87.3986
 20
6.73199
 11
87.5649
 21
6.49744
  0
LINE
  8
0
 10
87.5649
 20
6.49744
 11
87.7106
 21
6.21574
  0
LINE
  8
0
 10
87.7106
 20
6.21574
 11
87.8359
 21
5.88693
  0
LINE
  8
0
 10
87.8359
 20
5.88693
 11
87.9406
 21
5.51099
  0
LINE
  8
0
 10
87.9406
 20
5.51099
 11
88.0006
 21
5.33693
  0
LINE
  8
0
 10
88.0006
 20
5.33693
 11
88.0636
 21
5.19073
  0
LINE
  8
0
 10
88.0636
 20
5.19073
 11
88.1296
 21
5.07243
  0
LINE
  8
0
 10
88.1296
 20
5.07243
 11
88.1986
 21
4.98199
  0
LINE
  8
0
 10
88.1986
 20
4.98199
 11
88.2765
 21
4.9155
  0
LINE
  8
0
 10
88.2765
 20
4.9155
 11
88.3691
 21
4.868
  0
LINE
  8
0
 10
88.3691
 20
4.868
 11
88.4765
 21
4.83949
  0
LINE
  8
0
 10
88.4765
 20
4.83949
 11
88.5986
 21
4.82999
  0
LINE
  8
0
 10
88.5986
 20
4.82999
 11
88.7499
 21
4.84242
  0
LINE
  8
0
 10
-56.1912
 20
0.00805664
 11
-56.0175
 21
0.0322418
  0
LINE
  8
0
 10
-56.0175
 20
0.0322418
 11
-55.8687
 21
0.0725555
  0
LINE
  8
0
 10
-55.8687
 20
0.0725555
 11
-55.7448
 21
0.128998
  0
LINE
  8
0
 10
-55.7448
 20
0.128998
 11
-55.6467
 21
0.203049
  0
LINE
  8
0
 10
-55.6467
 20
0.203049
 11
-55.5768
 21
0.296249
  0
LINE
  8
0
 10
-55.5768
 20
0.296249
 11
-55.5347
 21
0.408554
  0
LINE
  8
0
 10
-55.5347
 20
0.408554
 11
-55.5208
 21
0.539993
  0
LINE
  8
0
 10
-55.5208
 20
0.539993
 11
-55.5274
 21
0.631058
  0
LINE
  8
0
 10
-55.5274
 20
0.631058
 11
-55.5473
 21
0.716248
  0
LINE
  8
0
 10
-55.5473
 20
0.716248
 11
-55.5804
 21
0.795547
  0
LINE
  8
0
 10
-55.5804
 20
0.795547
 11
-55.6268
 21
0.868988
  0
LINE
  8
0
 10
-55.6268
 20
0.868988
 11
-55.6878
 21
0.940933
  0
LINE
  8
0
 10
-55.6878
 20
0.940933
 11
-55.765
 21
1.01575
  0
LINE
  8
0
 10
-55.765
 20
1.01575
 11
-55.8583
 21
1.09343
  0
LINE
  8
0
 10
-55.8583
 20
1.09343
 11
-55.9677
 21
1.174
  0
LINE
  8
0
 10
-55.9677
 20
1.174
 11
-56.3898
 21
1.409
  0
LINE
  8
0
 10
-56.3898
 20
1.409
 11
-56.6086
 21
1.57217
  0
LINE
  8
0
 10
-56.6086
 20
1.57217
 11
-56.7953
 21
1.75574
  0
LINE
  8
0
 10
-56.7953
 20
1.75574
 11
-56.9496
 21
1.95969
  0
LINE
  8
0
 10
-56.9496
 20
1.95969
 11
-57.0717
 21
2.18399
  0
LINE
  8
0
 10
-57.0717
 20
2.18399
 11
-57.1641
 21
2.43956
  0
LINE
  8
0
 10
-57.1641
 20
2.43956
 11
-57.23
 21
2.73624
  0
LINE
  8
0
 10
-57.23
 20
2.73624
 11
-57.2696
 21
3.07405
  0
LINE
  8
0
 10
-57.2696
 20
3.07405
 11
-57.2827
 21
3.45299
  0
LINE
  8
0
 10
-57.2827
 20
3.45299
 11
-57.2827
 21
6.905
  0
LINE
  8
0
 10
-57.2827
 20
6.905
 11
-58.4807
 21
10.382
  0
LINE
  8
0
 10
-58.4807
 20
10.382
 11
-58.4807
 21
3.42899
  0
LINE
  8
0
 10
-58.4807
 20
3.42899
 11
-58.4998
 21
3.02255
  0
LINE
  8
0
 10
-58.4998
 20
3.02255
 11
-58.557
 21
2.64824
  0
LINE
  8
0
 10
-58.557
 20
2.64824
 11
-58.6523
 21
2.30606
  0
LINE
  8
0
 10
-58.6523
 20
2.30606
 11
-58.7858
 21
1.99599
  0
LINE
  8
0
 10
-58.7858
 20
1.99599
 11
-58.9603
 21
1.71718
  0
LINE
  8
0
 10
-58.9603
 20
1.71718
 11
-59.179
 21
1.46774
  0
LINE
  8
0
 10
-59.179
 20
1.46774
 11
-59.4418
 21
1.24768
  0
LINE
  8
0
 10
-59.4418
 20
1.24768
 11
-59.9056
 21
0.958176
  0
LINE
  8
0
 10
-59.9056
 20
0.958176
 11
-59.9466
 21
0.92868
  0
LINE
  8
0
 10
-59.9466
 20
0.92868
 11
-60.0037
 21
0.880173
  0
LINE
  8
0
 10
-60.0037
 20
0.880173
 11
-60.0395
 21
0.842743
  0
LINE
  8
0
 10
-60.0395
 20
0.842743
 11
-60.0682
 21
0.80368
  0
LINE
  8
0
 10
-60.0682
 20
0.80368
 11
-60.0898
 21
0.762985
  0
LINE
  8
0
 10
-60.0898
 20
0.762985
 11
-60.1051
 21
0.719803
  0
LINE
  8
0
 10
-60.1051
 20
0.719803
 11
-60.116
 21
0.672241
  0
LINE
  8
0
 10
-60.116
 20
0.672241
 11
-60.1226
 21
0.6203
  0
LINE
  8
0
 10
-60.1226
 20
0.6203
 11
-60.1248
 21
0.563995
  0
LINE
  8
0
 10
-60.1248
 20
0.563995
 11
-60.1108
 21
0.422424
  0
LINE
  8
0
 10
-60.1108
 20
0.422424
 11
-60.069
 21
0.30275
  0
LINE
  8
0
 10
-60.069
 20
0.30275
 11
-59.9993
 21
0.204926
  0
LINE
  8
0
 10
-59.9993
 20
0.204926
 11
-59.9017
 21
0.128998
  0
LINE
  8
0
 10
-59.9017
 20
0.128998
 11
-59.7778
 21
0.0725555
  0
LINE
  8
0
 10
-59.7778
 20
0.0725555
 11
-59.6288
 21
0.0322418
  0
LINE
  8
0
 10
-59.6288
 20
0.0322418
 11
-59.4548
 21
0.00805664
  0
LINE
  8
0
 10
-59.4548
 20
0.00805664
 11
-59.2558
 21
0
  0
LINE
  8
0
 10
-59.2558
 20
0
 11
-56.3898
 21
0
  0
LINE
  8
0
 10
-56.3898
 20
0
 11
-56.1912
 21
0.00805664
  0
LINE
  8
0
 10
34.7793
 20
-0.300369
 11
35.1623
 21
-0.264496
  0
LINE
  8
0
 10
35.1623
 20
-0.264496
 11
35.5423
 21
-0.212372
  0
LINE
  8
0
 10
35.5423
 20
-0.212372
 11
35.9193
 21
-0.143997
  0
LINE
  8
0
 10
35.9193
 20
-0.143997
 11
36.2909
 21
-0.0579987
  0
LINE
  8
0
 10
36.2909
 20
-0.0579987
 11
36.6538
 21
0.0469971
  0
LINE
  8
0
 10
36.6538
 20
0.0469971
 11
37.0079
 21
0.17099
  0
LINE
  8
0
 10
37.0079
 20
0.17099
 11
37.3533
 21
0.313995
  0
LINE
  8
0
 10
37.3533
 20
0.313995
 11
37.5203
 21
0.390747
  0
LINE
  8
0
 10
37.5203
 20
0.390747
 11
37.6933
 21
0.478989
  0
LINE
  8
0
 10
37.6933
 20
0.478989
 11
37.964
 21
0.619995
  0
LINE
  8
0
 10
37.964
 20
0.619995
 11
38.0573
 21
0.666992
  0
LINE
  8
0
 10
38.0573
 20
0.666992
 11
38.342
 21
0.837738
  0
LINE
  8
0
 10
38.342
 20
0.837738
 11
38.6323
 21
1.01999
  0
LINE
  8
0
 10
38.6323
 20
1.01999
 11
38.7771
 21
1.114
  0
LINE
  8
0
 10
38.7771
 20
1.114
 11
38.9175
 21
1.20799
  0
LINE
  8
0
 10
38.9175
 20
1.20799
 11
39.0536
 21
1.30199
  0
LINE
  8
0
 10
39.0536
 20
1.30199
 11
39.2666
 21
1.45567
  0
LINE
  8
0
 10
39.2666
 20
1.45567
 11
39.4251
 21
1.57918
  0
LINE
  8
0
 10
39.4251
 20
1.57918
 11
39.5023
 21
1.64299
  0
LINE
  8
0
 10
39.5023
 20
1.64299
 11
39.5765
 21
1.70868
  0
LINE
  8
0
 10
39.5765
 20
1.70868
 11
39.6463
 21
1.77574
  0
LINE
  8
0
 10
39.6463
 20
1.77574
 11
39.7115
 21
1.84418
  0
LINE
  8
0
 10
39.7115
 20
1.84418
 11
39.7723
 21
1.91399
  0
LINE
  8
0
 10
39.7723
 20
1.91399
 11
39.7723
 21
5.795
  0
LINE
  8
0
 10
39.7723
 20
5.795
 11
39.7745
 21
5.93843
  0
LINE
  8
0
 10
39.7745
 20
5.93843
 11
39.781
 21
6.06274
  0
LINE
  8
0
 10
39.781
 20
6.06274
 11
39.792
 21
6.16792
  0
LINE
  8
0
 10
39.792
 20
6.16792
 11
39.8073
 21
6.254
  0
LINE
  8
0
 10
39.8073
 20
6.254
 11
39.8329
 21
6.3268
  0
LINE
  8
0
 10
39.8329
 20
6.3268
 11
39.8748
 21
6.39224
  0
LINE
  8
0
 10
39.8748
 20
6.39224
 11
39.9329
 21
6.4503
  0
LINE
  8
0
 10
39.9329
 20
6.4503
 11
40.0073
 21
6.50099
  0
LINE
  8
0
 10
40.0073
 20
6.50099
 11
40.0667
 21
6.55994
  0
LINE
  8
0
 10
40.0667
 20
6.55994
 11
40.1022
 21
6.58344
  0
LINE
  8
0
 10
40.1022
 20
6.58344
 11
40.1243
 21
6.59499
  0
LINE
  8
0
 10
40.1243
 20
6.59499
 11
40.1893
 21
6.642
  0
LINE
  8
0
 10
40.1893
 20
6.642
 11
40.2658
 21
6.71106
  0
LINE
  8
0
 10
40.2658
 20
6.71106
 11
40.2893
 21
6.73024
  0
LINE
  8
0
 10
40.2893
 20
6.73024
 11
40.3128
 21
6.74655
  0
LINE
  8
0
 10
40.3128
 20
6.74655
 11
40.3363
 21
6.75999
  0
LINE
  8
0
 10
40.3363
 20
6.75999
 11
40.3803
 21
6.81856
  0
LINE
  8
0
 10
40.3803
 20
6.81856
 11
40.4183
 21
6.87724
  0
LINE
  8
0
 10
40.4183
 20
6.87724
 11
40.4503
 21
6.93605
  0
LINE
  8
0
 10
40.4503
 20
6.93605
 11
40.4763
 21
6.995
  0
LINE
  8
0
 10
40.4763
 20
6.995
 11
40.4968
 21
7.05544
  0
LINE
  8
0
 10
40.4968
 20
7.05544
 11
40.5115
 21
7.11874
  0
LINE
  8
0
 10
40.5115
 20
7.11874
 11
40.5203
 21
7.18494
  0
LINE
  8
0
 10
40.5203
 20
7.18494
 11
40.5233
 21
7.254
  0
LINE
  8
0
 10
40.5233
 20
7.254
 11
40.5101
 21
7.42731
  0
LINE
  8
0
 10
40.5101
 20
7.42731
 11
40.4705
 21
7.57124
  0
LINE
  8
0
 10
40.4705
 20
7.57124
 11
40.4046
 21
7.68581
  0
LINE
  8
0
 10
40.4046
 20
7.68581
 11
40.3123
 21
7.771
  0
LINE
  8
0
 10
40.3123
 20
7.771
 11
40.1862
 21
7.83418
  0
LINE
  8
0
 10
40.1862
 20
7.83418
 11
40.019
 21
7.88274
  0
LINE
  8
0
 10
40.019
 20
7.88274
 11
39.8107
 21
7.91669
  0
LINE
  8
0
 10
39.8107
 20
7.91669
 11
39.5613
 21
7.93599
  0
LINE
  8
0
 10
39.5613
 20
7.93599
 11
34.9423
 21
7.93599
  0
LINE
  8
0
 10
34.9423
 20
7.93599
 11
34.6922
 21
7.92644
  0
LINE
  8
0
 10
34.6922
 20
7.92644
 11
34.477
 21
7.89774
  0
LINE
  8
0
 10
34.477
 20
7.89774
 11
34.2967
 21
7.84993
  0
LINE
  8
0
 10
34.2967
 20
7.84993
 11
34.1513
 21
7.78299
  0
LINE
  8
0
 10
34.1513
 20
7.78299
 11
34.0397
 21
7.69592
  0
LINE
  8
0
 10
34.0397
 20
7.69592
 11
33.96
 21
7.58675
  0
LINE
  8
0
 10
33.96
 20
7.58675
 11
33.9122
 21
7.45543
  0
LINE
  8
0
 10
33.9122
 20
7.45543
 11
33.8963
 21
7.30199
  0
LINE
  8
0
 10
33.8963
 20
7.30199
 11
33.9054
 21
7.1893
  0
LINE
  8
0
 10
33.9054
 20
7.1893
 11
33.9328
 21
7.08524
  0
LINE
  8
0
 10
33.9328
 20
7.08524
 11
33.9784
 21
6.98981
  0
LINE
  8
0
 10
33.9784
 20
6.98981
 11
34.0423
 21
6.903
  0
LINE
  8
0
 10
34.0423
 20
6.903
 11
34.1229
 21
6.82831
  0
LINE
  8
0
 10
34.1229
 20
6.82831
 11
34.2188
 21
6.76825
  0
LINE
  8
0
 10
34.2188
 20
6.76825
 11
34.3299
 21
6.72281
  0
LINE
  8
0
 10
34.3299
 20
6.72281
 11
34.5473
 21
6.668
  0
LINE
  8
0
 10
34.5473
 20
6.668
 11
34.6628
 21
6.63393
  0
LINE
  8
0
 10
34.6628
 20
6.63393
 11
34.6993
 21
6.62674
  0
LINE
  8
0
 10
34.6993
 20
6.62674
 11
34.7358
 21
6.62244
  0
LINE
  8
0
 10
34.7358
 20
6.62244
 11
34.7723
 21
6.62099
  0
LINE
  8
0
 10
34.7723
 20
6.62099
 11
34.9485
 21
6.55899
  0
LINE
  8
0
 10
34.9485
 20
6.55899
 11
35.0883
 21
6.491
  0
LINE
  8
0
 10
35.0883
 20
6.491
 11
35.1915
 21
6.41699
  0
LINE
  8
0
 10
35.1915
 20
6.41699
 11
35.2583
 21
6.33699
  0
LINE
  8
0
 10
35.2583
 20
6.33699
 11
35.3012
 21
6.24118
  0
LINE
  8
0
 10
35.3012
 20
6.24118
 11
35.3318
 21
6.11874
  0
LINE
  8
0
 10
35.3318
 20
6.11874
 11
35.3502
 21
5.96968
  0
LINE
  8
0
 10
35.3502
 20
5.96968
 11
35.3563
 21
5.79399
  0
LINE
  8
0
 10
35.3563
 20
5.79399
 11
35.3563
 21
2.39
  0
LINE
  8
0
 10
35.3563
 20
2.39
 11
35.343
 21
2.09018
  0
LINE
  8
0
 10
35.343
 20
2.09018
 11
35.3033
 21
1.82874
  0
LINE
  8
0
 10
35.3033
 20
1.82874
 11
35.237
 21
1.60568
  0
LINE
  8
0
 10
35.237
 20
1.60568
 11
35.1443
 21
1.42099
  0
LINE
  8
0
 10
35.1443
 20
1.42099
 11
35.0182
 21
1.2688
  0
LINE
  8
0
 10
35.0182
 20
1.2688
 11
34.851
 21
1.14325
  0
LINE
  8
0
 10
34.851
 20
1.14325
 11
34.6427
 21
1.04431
  0
LINE
  8
0
 10
34.6427
 20
1.04431
 11
34.3933
 21
0.971985
  0
LINE
  8
0
 10
34.3933
 20
0.971985
 11
34.3933
 21
-0.319992
  0
LINE
  8
0
 10
34.3933
 20
-0.319992
 11
34.7793
 21
-0.300369
  0
LINE
  8
0
 10
61.9678
 20
4.01599
 11
61.9597
 21
4.24312
  0
LINE
  8
0
 10
61.9597
 20
4.24312
 11
61.9356
 21
4.4305
  0
LINE
  8
0
 10
61.9356
 20
4.4305
 11
61.8952
 21
4.57812
  0
LINE
  8
0
 10
61.8952
 20
4.57812
 11
61.8388
 21
4.68599
  0
LINE
  8
0
 10
61.8388
 20
4.68599
 11
61.7604
 21
4.76299
  0
LINE
  8
0
 10
61.7604
 20
4.76299
 11
61.6541
 21
4.81799
  0
LINE
  8
0
 10
61.6541
 20
4.81799
 11
61.5199
 21
4.851
  0
LINE
  8
0
 10
61.5199
 20
4.851
 11
61.3578
 21
4.862
  0
LINE
  8
0
 10
61.3578
 20
4.862
 11
61.2689
 21
4.85687
  0
LINE
  8
0
 10
61.2689
 20
4.85687
 11
61.1903
 21
4.84149
  0
LINE
  8
0
 10
61.1903
 20
4.84149
 11
61.1219
 21
4.81587
  0
LINE
  8
0
 10
61.1219
 20
4.81587
 11
61.0638
 21
4.78
  0
LINE
  8
0
 10
61.0638
 20
4.78
 11
61.0101
 21
4.73087
  0
LINE
  8
0
 10
61.0101
 20
4.73087
 11
60.955
 21
4.6655
  0
LINE
  8
0
 10
60.955
 20
4.6655
 11
60.8986
 21
4.58386
  0
LINE
  8
0
 10
60.8986
 20
4.58386
 11
60.8408
 21
4.48599
  0
LINE
  8
0
 10
60.8408
 20
4.48599
 11
60.765
 21
4.33299
  0
LINE
  8
0
 10
60.765
 20
4.33299
 11
60.7355
 21
4.26299
  0
LINE
  8
0
 10
60.7355
 20
4.26299
 11
60.7228
 21
4.228
  0
LINE
  8
0
 10
60.7228
 20
4.228
 11
60.4542
 21
3.58655
  0
LINE
  8
0
 10
60.4542
 20
3.58655
 11
60.1416
 21
3.02425
  0
LINE
  8
0
 10
60.1416
 20
3.02425
 11
59.7847
 21
2.54106
  0
LINE
  8
0
 10
59.7847
 20
2.54106
 11
59.3838
 21
2.13699
  0
LINE
  8
0
 10
59.3838
 20
2.13699
 11
58.9275
 21
1.80824
  0
LINE
  8
0
 10
58.9275
 20
1.80824
 11
58.4035
 21
1.54999
  0
LINE
  8
0
 10
58.4035
 20
1.54999
 11
57.812
 21
1.36224
  0
LINE
  8
0
 10
57.812
 20
1.36224
 11
57.1528
 21
1.245
  0
LINE
  8
0
 10
57.1528
 20
1.245
 11
57.1528
 21
0
  0
LINE
  8
0
 10
57.1528
 20
0
 11
61.9678
 21
0
  0
LINE
  8
0
 10
61.9678
 20
0
 11
61.9678
 21
4.01599
  0
LINE
  8
0
 10
-62.5127
 20
4.01599
 11
-62.5208
 21
4.24312
  0
LINE
  8
0
 10
-62.5208
 20
4.24312
 11
-62.545
 21
4.4305
  0
LINE
  8
0
 10
-62.545
 20
4.4305
 11
-62.5853
 21
4.57812
  0
LINE
  8
0
 10
-62.5853
 20
4.57812
 11
-62.6417
 21
4.68599
  0
LINE
  8
0
 10
-62.6417
 20
4.68599
 11
-62.7202
 21
4.76299
  0
LINE
  8
0
 10
-62.7202
 20
4.76299
 11
-62.8265
 21
4.81799
  0
LINE
  8
0
 10
-62.8265
 20
4.81799
 11
-62.9607
 21
4.851
  0
LINE
  8
0
 10
-62.9607
 20
4.851
 11
-63.1227
 21
4.862
  0
LINE
  8
0
 10
-63.1227
 20
4.862
 11
-63.2116
 21
4.85687
  0
LINE
  8
0
 10
-63.2116
 20
4.85687
 11
-63.2902
 21
4.84149
  0
LINE
  8
0
 10
-63.2902
 20
4.84149
 11
-63.3586
 21
4.81587
  0
LINE
  8
0
 10
-63.3586
 20
4.81587
 11
-63.4167
 21
4.78
  0
LINE
  8
0
 10
-63.4167
 20
4.78
 11
-63.4704
 21
4.73087
  0
LINE
  8
0
 10
-63.4704
 20
4.73087
 11
-63.5255
 21
4.6655
  0
LINE
  8
0
 10
-63.5255
 20
4.6655
 11
-63.5819
 21
4.58386
  0
LINE
  8
0
 10
-63.5819
 20
4.58386
 11
-63.6397
 21
4.48599
  0
LINE
  8
0
 10
-63.6397
 20
4.48599
 11
-63.7155
 21
4.33299
  0
LINE
  8
0
 10
-63.7155
 20
4.33299
 11
-63.745
 21
4.26299
  0
LINE
  8
0
 10
-63.745
 20
4.26299
 11
-63.7577
 21
4.228
  0
LINE
  8
0
 10
-63.7577
 20
4.228
 11
-64.0263
 21
3.58655
  0
LINE
  8
0
 10
-64.0263
 20
3.58655
 11
-64.339
 21
3.02425
  0
LINE
  8
0
 10
-64.339
 20
3.02425
 11
-64.6958
 21
2.54106
  0
LINE
  8
0
 10
-64.6958
 20
2.54106
 11
-65.0967
 21
2.13699
  0
LINE
  8
0
 10
-65.0967
 20
2.13699
 11
-65.553
 21
1.80824
  0
LINE
  8
0
 10
-65.553
 20
1.80824
 11
-66.077
 21
1.54999
  0
LINE
  8
0
 10
-66.077
 20
1.54999
 11
-66.6685
 21
1.36224
  0
LINE
  8
0
 10
-66.6685
 20
1.36224
 11
-67.3277
 21
1.245
  0
LINE
  8
0
 10
-67.3277
 20
1.245
 11
-67.3277
 21
0
  0
LINE
  8
0
 10
-67.3277
 20
0
 11
-62.5127
 21
0
  0
LINE
  8
0
 10
-62.5127
 20
0
 11
-62.5127
 21
4.01599
  0
LINE
  8
0
 10
91.2976
 20
4.01599
 11
91.2896
 21
4.24312
  0
LINE
  8
0
 10
91.2896
 20
4.24312
 11
91.2654
 21
4.4305
  0
LINE
  8
0
 10
91.2654
 20
4.4305
 11
91.2251
 21
4.57812
  0
LINE
  8
0
 10
91.2251
 20
4.57812
 11
91.1686
 21
4.68599
  0
LINE
  8
0
 10
91.1686
 20
4.68599
 11
91.0902
 21
4.76299
  0
LINE
  8
0
 10
91.0902
 20
4.76299
 11
90.9839
 21
4.81799
  0
LINE
  8
0
 10
90.9839
 20
4.81799
 11
90.8497
 21
4.851
  0
LINE
  8
0
 10
90.8497
 20
4.851
 11
90.6876
 21
4.862
  0
LINE
  8
0
 10
90.6876
 20
4.862
 11
90.5987
 21
4.85687
  0
LINE
  8
0
 10
90.5987
 20
4.85687
 11
90.5201
 21
4.84149
  0
LINE
  8
0
 10
90.5201
 20
4.84149
 11
90.4517
 21
4.81587
  0
LINE
  8
0
 10
90.4517
 20
4.81587
 11
90.3936
 21
4.78
  0
LINE
  8
0
 10
90.3936
 20
4.78
 11
90.3399
 21
4.73087
  0
LINE
  8
0
 10
90.3399
 20
4.73087
 11
90.2849
 21
4.6655
  0
LINE
  8
0
 10
90.2849
 20
4.6655
 11
90.2284
 21
4.58386
  0
LINE
  8
0
 10
90.2284
 20
4.58386
 11
90.1706
 21
4.48599
  0
LINE
  8
0
 10
90.1706
 20
4.48599
 11
90.0948
 21
4.33299
  0
LINE
  8
0
 10
90.0948
 20
4.33299
 11
90.0653
 21
4.26299
  0
LINE
  8
0
 10
90.0653
 20
4.26299
 11
90.0526
 21
4.228
  0
LINE
  8
0
 10
90.0526
 20
4.228
 11
89.784
 21
3.58655
  0
LINE
  8
0
 10
89.784
 20
3.58655
 11
89.4714
 21
3.02425
  0
LINE
  8
0
 10
89.4714
 20
3.02425
 11
89.1145
 21
2.54106
  0
LINE
  8
0
 10
89.1145
 20
2.54106
 11
88.7136
 21
2.13699
  0
LINE
  8
0
 10
88.7136
 20
2.13699
 11
88.2573
 21
1.80824
  0
LINE
  8
0
 10
88.2573
 20
1.80824
 11
87.7334
 21
1.54999
  0
LINE
  8
0
 10
87.7334
 20
1.54999
 11
87.1418
 21
1.36224
  0
LINE
  8
0
 10
87.1418
 20
1.36224
 11
86.4826
 21
1.245
  0
LINE
  8
0
 10
86.4826
 20
1.245
 11
86.4826
 21
0
  0
LINE
  8
0
 10
86.4826
 20
0
 11
91.2976
 21
0
  0
LINE
  8
0
 10
91.2976
 20
0
 11
91.2976
 21
4.01599
  0
ENDSEC
  0
SECTION
  2
OBJECTS
  0
DICTIONARY
  0
ENDSEC
  0
EOF
